top separator

Home

Forum

What's New

Submit a Tab

FAQ

Links

Contact Us

Link to Us

MetalTabs.com logo

Bands

0-9

A

B

C

D

E

F

G

H

I

J

K

L

M

N

O

P

Q

R

S

T

U

V

W

X

Y

Z

Search

What

Where
 

Tristania - "Lethean River" Guitar Tab

Plain Text Version
More Tristania Tabs

Hits: 8442
Rated: 3.94 out of 5 (18 votes)
Updated: 2001-06-06 08:08:03

 

Important note
This tab is available online because we obtained explicit permission from Tristania or their label.


#----------------------------------PLEASE NOTE---------------------------------#
#This file is the author's own work and represents their interpretation of the #
#song. You may only use this file for private study, scholarship, or research. #
#Unless specified otherwise, this is NOT an official tab from the band members.#
#------------------------------------------------------------------------------#

  Visit MetalTabs.com for more metal tablature
  
==============================================
Tytuł/Title:  Lethean River
Zaspół/Band:  Tristania
Album:        Beyond the Veil
==============================================

Autor tabulatury
/Author of this tab: Kwadrat
                     k.w.adrat@wp.pl

Tabulatura pochodzi ze strony
www.kvadrat.prv.pl. Jej zamieszczanie
na innych stronach dozwolone jest tylko
za zgodą autora.

This tab comes from www.kvadrat.prv.pl.
Do not distribute without authors written
permission.

==============================================
I. Intro
     -nieprzesterowanego początku niestety nie
      mam.
     -haven't tabbed the clean intro yet,
      sorry.

II. Początek/the beginning
     -nie będę rozpisywał dokładnie, bo szkoda
      miejsca. Głównie kombinacje power
      chordów na 0, 3 i 5 progu (struna A)
     -just some combinations of power chords
      on 0, 3rd and 5th fret (A string)

Riff A: graj 2x / play 2x
                  then
   3x             potem 1x
E2|-------------------- ----------------------
B |-------------------- ----------------------
G |--2--2-2------------ ------0---------7-----
D |--2--2-2-3p2-2-2-0-- ----2--(2)----7--(7)--
A |--0--0-0------------ --3---------5---------
E |-------------------- ----------------------
        ...

Riff B: graj 2x / play 2x
                  then
   3x             potem 1x
E2|-------------------- ----------------------
B |-------------------- ----------------------
G |--2----------------- ------0---------7-----
D |--2----------------- ----2--(2)----7--(7)--
A |--0----------------- --3---------5---------
E |-------------------- ----------------------
        ...
     Rise my clandestines, ...

Riff A - znowu/again 2x
     (Rise upon the tide, ...)

Riff C - 1x
     (1:22)
E2|-----------------------------------------
B |-----------------------------------------
G |-10---10-10----9--7--9----9--9----12-12--
D |-10---10-10----9--7--9----9--9----12-12--
A |--8----8--8----7--5--7----7--7----10-10--
E |-----------------------------------------

E2|-----------------------------------------
B |-----------------------------------------
G |-14---14\10----9--7--9----9--9-----4--4--
D |-14---14\10----9--7--9----9--9-----4--4--
A |-12---12\-8----7--5--7----7--7-----2--2--
E |-----------------------------------------


Riff A - 2x

Riff C - 1x

Riff D: graj 2x / play 2x
     (2:08)
E2|----------------|----------------
B |----------------|-----------1-3--
G |----4-2---------|----4-2--0------
D |--2------5-4-2--|--2-------------
A |----------------|----------------
E |----------------|----------------

c.d. poprzedniego / Riff D continued
E2|----------------|----------------
B |----------------|----------------
G |----4-2---------|----2-0------2--
D |--2------5-4-5--|--0------4-5----
A |----------------|----------------
E |----------------|----------------


III. Mostek / Bridge

IV.

...so sore upon congeal...

Riff E: graj 4x / play 4x
     (3:08)
E2|---------------------------------
B |---------------------------------
G |--7--7-7--7--7-7--7--7-7--5--5-5-
D |--7--7-7--7--7-7--7--7-7--5--5-5-
A |--5--5-5--5--5-5--5--5-5--3--3-3-
E |---------------------------------
        ...     ...     ...     ...
...skin
     Ardency of life forsakened...

c.d. poprzedniego / Riff E continued
E2|-----------------------------------------
B |-----------------------------------------
G |-----------------------------------------
D |--5--5-5--5--5-5-------------------------
A |--5--5-5--5--5-5------------1-1-1--3-3-3-
E |--3--3-3--3--3-3--1--3-3-3---------------
        ...     ...     ...................

Riff D: 2x

Riff F: graj 4x / play 4x

     (2:08)
E2|---------------------------------
B |---------------------------------
G |----4-2--5-4-2-------------------
D |--2------------5--4--5-----------
A |---------------------------------
E |---------------------------------

c.d. poprzedniego / Riff E continued
E2|---------------------------------
B |---------3-1-0-1--0--1-----------
G |----2-0--------------------------
D |--0------------------------------
A |---------------------------------
E |---------------------------------

V. Mostek / Bridge

OK to (prawie) wszystko. Tak naprawdę w czasie
mostków są akordy, ale są tak ciche, że trudno
mi je było rozpisać.

There ARE some chords during the bridge, but
I found them too quiet to tab.

  Visit MetalTabs.com for more metal tablature

bottom separator

Contact Us | Privacy Policy | Disclaimer | Legal Notice
Copyright © 2001-2014 MetalTabs.com. All Rights Reserved.