top separator

Home

Forum

FAQ

Contact Us

Link to Us

MetalTabs.com logo

Bands

0-9

A

B

C

D

E

F

G

H

I

J

K

L

M

N

O

P

Q

R

S

T

U

V

W

X

Y

Z

Lz Rockit - "In the Name of the Father and the Gun" Guitar Tab

Plain Text Version
More Lz Rockit Tabs

Hits: 1516
Rated: 5.00 out of 5 (2 votes)
Updated: 2006-08-17 01:48:53

By:

MetalThrashingMad


#----------------------------------PLEASE NOTE---------------------------------#
#This file is the author's own work and represents their interpretation of the #
#song. You may only use this file for private study, scholarship, or research. #
#Unless specified otherwise, this is NOT an official tab from the band members.#
#------------------------------------------------------------------------------#

  Visit MetalTabs.com for more metal tablature
  
IN THE NAME OF THE FATHER AND THE GUN
                           As recorded by Lz Rockit
                     (From the 1991 Album NOTHING'$ $ACRED)
                        Copyright (c) 1991 Roadrunner

Arranged by Lz Rockit
Transcribed by Steve Rubaszek
Version - 1.1 - June 20, 2006
Email - Thrasher502@hotmail.com


Gtr I (E A D G B E) - 'Guitar I'
Gtr II (E A D G B E) - 'Guitar II'
Gtr III (E A D G B E) - 'Solo'


 Intro - 0:00
  Q=200
 4/4
  Gtr I
|------------------|-----------------|-------------------|------------------|
|------------------|-----------------|-------------------|------------------|
|------------------|-----------------|-------------------|------------------|
|--------------3S2-|-------3-------3-|---------------3S2-|-------3-------3--|
|---/7\--------3S2-|---------2-------|-2---6S7-------3S2-|---------2--------|
|--------0-0-0-----|-0-0-0-----4-4---|---4-4S5-0-0-0-----|-4-4-4-----4-4----|
|
| Gtr II
|------------------|-----------------|-------------------|------------------|
|------------------|-----------------|-------------------|------------------|
|------------------|-----------------|-------------------|------------------|
|--------------3S2-|-----------------|---------------3S2-|------------------|
|---/7\--------3S2-|-------5-------5-|-----6S7-------3S2-|-------5-------5--|
|--------0-0-0-----|-0-0-0---4-0-0---|-4-0-4S5-0-0-0-----|-4-4-4---4-0-0----|


|-------------------|-----------------|-------------------|-----------------|
|-------------------|-----------------|-------------------|-----------------|
|-------------------|-----------------|-------------------|-----------------|
|-----2S3-------2S1-|-------3-------3-|---------------3S2-|-------3-------3-|
|-2---2S3-------2S1-|---------2-------|-2---6S7-------3S2-|---------2-------|
|---4-----0-0-0-----|-0-0-0-----4-4---|---4-4S5-0-0-0-----|-0-0-0-----4-4---|
|
|-------------------|-----------------|-------------------|-----------------|
|-------------------|-----------------|-------------------|-----------------|
|-------------------|-----------------|-------------------|-----------------|
|-----2S3-------2S1-|-----------------|---------------3S2-|-----------------|
|-----2S3-------2S1-|-------5-------5-|-----6S7-------3S2-|-------5-------5-|
|-4-0-----0-0-0-----|-0-0-0---4-0-0---|-4-0-4S5-0-0-0-----|-0-0-0---4-0-0---|


                    Q=195
|-----------------|-----------------|---------------------|-----------------|
|-----------------|-----------------|---------------------|-----------------|
|-----------------|-----------------|---------------------|-----------------|
|-----------------|-----------------|-----------------3S2-|-----------------|
|-6--6---7-6--4-6-|-2-----5-------5-|-------6S7-------3S2-|-6-----5-------5-|
|-4--4---5-4--2-4-|-0-0-0---4-0-0---|--4--0-4S5-0-0-0-----|-4-4-4---4-0-0---|
|
|                                               PM--|
|-----------------|-----------------|---------------------|-----------------|
|-----------------|-----------------|---------------------|-----------------|
|-----------------|-----------------|---------------------|-----------------|
|-----------------|-2---------------|-(2)-----------------|-6---------------|
|-6------7-6--4-6-|-2---------------|-(2)-----------------|-6---------------|
|-4--4-4-5-4--2-4-|-0---------------|-(0)-------0-0-0-1p0-|-4---------------|


|---------------------|-----------------|
|---------------------|-----------------|
|---------------------|-----------------|
|-----------------3S2-|-----------------|
|-------6S7-------3S2-|-6-----5-------5-|
|--4--0-4S5-0-0-0-----|-6-0-0---4-0-0---|
|
|           PM--|
|---------------------|-----------------|
|---------------------|-----------------|
|---------------------|-----------------|
|-(6)-----------------|-----------------|
|-(6)-----------------|-6---------------|
|-(4)-------0-0-0-1p0-|-6---------------|


|---------------------|-----------------|
|---------------------|-----------------|
|---------------------|-----------------|
|-----------------3S2-|-----------------|
|-------6S7-------3S2-|-2-----5-------5-|
|--4--0-4S5-0-0-0-----|-0-0-0---4-0-0---|
|
|           PM--|
|---------------------|-----------------|
|---------------------|-----------------|
|---------------------|-----------------|
|---------------------|-2---------------|
|-(6)-----------------|-2---------------|
|-(6)-------0-0-0-1p0-|-0---------------|


|---------------------|---------------------|
|---------------------|---------------------|
|---------------------|---------------------|
|-----------------3S2-|---------------------|
|-------6S7-------3S2-|-2-------5---------5-|
|--4--0-4S5-0-0-0-----|-0-0-0-----4-0-0-----|
|
|           PM--|
|---------------------|---------------------|
|---------------------|---------------------|
|---------------------|---------------------|
|-(2)-----------------|---------------------|
|-(2)-----------------|-2---------2---------|
|-(0)-------0-0-0-1p0-|-0-0-0-0-0-0-0-0-0-0-|


|-----------------------|----------------------|
|-----------------------|----------------------|
|-----------------------|----------------------|
|-----------------3S==2-|----------------------|
|-----6---7-------3S==2-|-6-------5---------5--|
|-4-0-4---5-0---0-------|-4-4-4-----4-0-0------|
|
|-----------------------|----------------------|
|-----------------------|----------------------|
|-----------------------|----------------------|
|-----------------------|----------------------|
|-2---------------------|-6---------6----------|
|-0-0-0-0-0-0-0-0-0-0-0-|-4-4-4-4-4-4-4-4-4-4--|


|-----------------------|---------------------|
|-----------------------|---------------------|
|-----------------------|---------------------|
|-----------------3S==2-|---------------------|
|-----6---7-------3S==2-|-6-------5---------5-|
|-4-0-4---5-0---0-------|-6-0-0-----4-0-0-----|
|
|-----------------------|---------------------|
|-----------------------|---------------------|
|-----------------------|---------------------|
|-----------------------|---------------------|
|-6---------------------|-8---------8---------|
|-4-4-4-4-4-0-0-0-0-0-0-|-6-6-6-6-6-6-6-6-6-6-|


|---------------------|---------------------|
|---------------------|---------------------|
|---------------------|---------------------|
|---------------3S==2-|---------------------|
|-----6---7-----3S==2-|-2-------5---------5-|
|-4-0-4---5-0-0-------|-0-0-0-----4-0-0-----|
|
|---------------------|---------------------|
|---------------------|---------------------|
|---------------------|---------------------|
|---------------------|---------------------|
|-8-------------------|-2---------2---------|
|-6-6-6-6-6-0-0-0-0-0-|-0-0-0-0-0-0-0-0-0-0-|


                    Q=192
  PM----------|         PM                PM|       PM|       PM
|-----------------|-------------------|-----------------|-------------------|
|-----------------|-------------------|-----------------|-------------------|
|-----------------|-------------------|-----------------|-------------------|
|-9-6-----------6-|-------------------|-----------------|-------------------|
|-----9-6---------|-------5-----------|-3-----5---------|-------5-----------|
|---------5-4-5---|-1p0-0---1p0-1-1p0-|-1-0-0---1p0-0-0-|-1p0-0---1p0-1-1p0-|
|
| PM----------|         PM                PM|       PM|       PM
|-----------------|-------------------|-----------------|-------------------|
|-----------------|-------------------|-----------------|-------------------|
|-----------------|-------------------|-----------------|-------------------|
|-6-3-----------3-|-------------------|-----------------|-------------------|
|-----6-3---------|-------5-----------|-3-----5---------|-------5-----------|
|---------2-1-2---|-1p0-0---1p0-1-1p0-|-1-0-0---1p0-0-0-|-1p0-0---1p0-1-1p0-|


    PM|       PM|       PM                PM|       PM|       PM
|-----------------|-------------------|-----------------|-------------------|
|-----------------|-------------------|-----------------|-------------------|
|-----------------|-------------------|-----------------|-------------------|
|-----------------|-------------------|-----------------|-------------------|
|-3-----7-7S6-----|-------5-----------|-3-----5---------|-------5-----------|
|-1-0-0-5-5S4-4-4-|-1p0-0---1p0-1-1p0-|-1-0-0---1p0-0-0-|-1p0-0---1p0-1-1p0-|
|
|   PM|       PM|       PM                PM|       PM|       PM
|-----------------|-------------------|-----------------|-------------------|
|-----------------|-------------------|-----------------|-------------------|
|-----------------|-------------------|-----------------|-------------------|
|-----------------|-------------------|-----------------|-------------------|
|-3-----7-7S6-----|-------5-----------|-3-----5---------|-------5-----------|
|-1-0-0-5-5S4-4-4-|-1p0-0---1p0-1-1p0-|-1-0-0---1p0-0-0-|-1p0-0---1p0-1-1p0-|


  PM----------|
|-----------------|-----------------|--------|
|-----------------|-----------------|--------|
|-----------------|-----------------|--------|
|-9-6---6-------6-|-----------------|--------|
|-----9-----------|-6------7-6--4-6-|-2------|
|---------5-4-5---|-4--4-4-5-4--2-4-|-0------|
|
| PM----------|
|-----------------|-----------------|--------|
|-----------------|-----------------|--------|
|-----------------|-----------------|--------|
|-6-3---3-------3-|-----------------|--------|
|-----6-----------|-6------7-6--4-6-|-2------|
|---------2-1-2---|-4--4-4-5-4--2-4-|-0------|


   Pre-Verse - 0:44
    Q=200
    $
    Gtr I
        PM----------|
||--------------------|-----------------|
||o-------------------|-----------------|
||--------------------|-----------------|
||--3S2---------------|-8S7-------------|
||o-3S2---------------|-6S5-----5-----7-|
||------0-0-0-0-0-0-0-|-----0-0---5-7---|
|
|   Gtr II
|       PM----------|
||--------------------|-----------------|
||o-------------------|-----------------|
||--------------------|-----------------|
||--3S2---------------|-8S7-----3-----5-|
||o-3S2---------------|-6S5-------3-5---|
||------0-0-0-0-0-0-0-|-----0-0---------|


  PM--------------|            PM
|-------------------|--------------------|
|-------------------|--------------------|
|-------------------|--------------------|
|-------------------|-4S5S4-2------------|
|-------------------|-2S3S2-0------------|
|-0-0-0-0-0-0-0-0-0-|---------(0)-8-7-5--|
|
| PM--------------|            PM
|-------------------|--------------------|
|-------------------|--------------------|
|-------------------|--------------------|
|-------------------|-4S5S4-2------------|
|-------------------|-2S3S2-0-----6-5-3--|
|-0-0-0-0-0-0-0-0-0-|---------(0)--------|


      PM----------|                     PM--------------|           PM|
|-------------------|-----------------|-------------------|------------------||
|-------------------|-----------------|-------------------|-----------------o||
|-------------------|-----------------|-------------------|------------------||
|-3S2---------------|-8S7-------------|-------------------|---------2p0-2h3--||
|-3S2---------------|-6S5-----5-----7-|-------------------|-4-----5-2p0-2h3-o||
|-----0-0-0-0-0-0-0-|-----0-0---5-7---|-0-0-0-0-0-0-0-0-0-|---3-4------------||
|
|     PM----------|                     PM--------------|           PM|
|-------------------|-----------------|-------------------|------------------||
|-------------------|-----------------|-------------------|-----------------o||
|-------------------|-----------------|-------------------|------------------||
|-3S2---------------|-8S7-----3-----5-|-------------------|-2-----3-2p0-2h3--||
|-3S2---------------|-6S5-------3-5---|-------------------|---1-2---2p0-2h3-o||
|-----0-0-0-0-0-0-0-|-----0-0---------|-0-0-0-0-0-0-0-0-0-|------------------||


 Verse - 1:04
      PM                  PM                  PM                PM|       PM|
|-------------------|-------------------|-------------------|------------------|
|-------------------|-------------------|-------------------|------------------|
|-------------------|-------------------|-------------------|------------------|
|-------------------|-------------------|-------------------|------------------|
|-------5-----------|-------5-----------|-------5-----------|-3-----7-7S6------|
|-1p0-0---1p0-1-1p0-|-1p0-0---1p0-1-1p0-|-1p0-0---1p0-1-1p0-|-1-0-0-5-5S4-4-4--|
|
|     PM                  PM                  PM                PM|       PM|
|-------------------|-------------------|-------------------|------------------|
|-------------------|-------------------|-------------------|------------------|
|-------------------|-------------------|-------------------|------------------|
|-------------------|-------------------|-------------------|------------------|
|-------5-----------|-------5-----------|-------5-----------|-3-----7-7S6------|
|-1p0-0---1p0-1-1p0-|-1p0-0---1p0-1-1p0-|-1p0-0---1p0-1-1p0-|-1-0-0-5-5S4-4-4--|


                                                                        D.S.
      PM                  PM                  PM              PM----------|
|-------------------|-------------------|-------------------|------------------|
|-------------------|-------------------|-------------------|------------------|
|-------------------|-------------------|-------------------|------------------|
|-------------------|-------------------|-------------------|-9-6---6-------6--|
|-------5-----------|-------5-----------|-------5-----------|-----9------------|
|-1p0-0---1p0-1-1-0-|-1p0-0---1p0-1-1p0-|-1p0-0---1p0-1-1-0-|---------5-4-5----|
|
|     PM                  PM                  PM              PM----------|
|-------------------|-------------------|-------------------|------------------|
|-------------------|-------------------|-------------------|------------------|
|-------------------|-------------------|-------------------|------------------|
|-------------------|-------------------|-------------------|-6-3---3-------3--|
|-------5-----------|-------5-----------|-------5-----------|-----6------------|
|-1p0-0---1p0-1-1-0-|-1p0-0---1p0-1-1p0-|-1p0-0---1p0-1-1-0-|---------2-1-2----|


   Chorus - 1:46
    Gtrs I, II
      PM|   PM|   PM--|   PM----|         PM|   PM|       PM|
||------------------|-----------------|-----------------|------------------|
||o-----------------|-----------------|-----------------|------------------|
||------------------|-----------------|-----------------|------------------|
||--6-----2-----3---|---2-----0h2-2h3-|-6---------------|------------------|
||o-4-----2-----3---|---2-----0h2-2h3-|-4-----2---------|-----4------------|
||----0-0---0-0---0-|-0---0-0---------|---0-0-0-0-0-1p0-|-0-0---5-0-3-1-0--|


  1.
    PM|   PM|   PM--|   PM----|         PM|   PM|       PM--------------|
|-----------------|-----------------|-----------------|---------------------||
|-----------------|-----------------|-----------------|--------------------o||
|-----------------|-----------------|-----------------|---------------------||
|-6-----2-----3---|---2-----0h2-2h3-|-6-----2---------|---------------------||
|-4-----2-----3---|---2-----0h2-2h3-|-4-----2---------|--------------------o||
|---0-0---0-0---0-|-0---0-0---------|---0-0---0-0-1p0-|-0-0-0-0-0-0-0-0-0---||


  2.
    PM|   PM|   PM--|   PM----|         PM|   PM|         PM----|
|-----------------|-----------------|-----------------|-----------------||
|-----------------|-----------------|-----------------|-----------------||
|-----------------|-----------------|-----------------|-----------------||
|-6-----2-----3---|---2-----0h2-2h3-|-6-----2---------|-2---------------||
|-4-----2-----3---|---2-----0h2-2h3-|-4-----2---------|-2---------4-----||
|---0-0---0-0---0-|-0---0-0---------|---0-0---0-0-1p0-|---0-0-0-0---5-0-||


 Solo - 2:06
  Q=202
  Gtr III
                                  ~~~~
|------------------|-----------------------|
|-15b17------15-13-|-12h==13p12-(12)-------|
|------------------|-----------------------|
|------------------|-----------------------|
|------------------|-----------------------|
|------------------|-----------------------|
|
| Gtrs I, II
|                             PM---------|
|------------------|-----------------------|
|------------------|-----------------------|
|------------------|-----------------------|
|------------------|-----------------------|
|--2---------------|-(2)-------------------|
|--2---------------|-(2)------0---0--3-2-0-|


                             ~~
|-19b20------19-17-|-17h=19--------------|
|------------------|--------18-----------|
|------------------|---------------------|
|------------------|---------------------|
|------------------|---------------------|
|------------------|---------------------|
|
|                              PM------|
|------------------|---------------------|
|------------------|---------------------|
|------------------|---------------------|
|------------------|---------------------|
|--3---------------|-(3)-----------------|
|--3---------------|-(3)-------0-0-3-2-0-|


                       ~~~
|-22b24========(22)r|=22---------------|
|-------------------|---------------13s|
|-------------------|------------------|
|-------------------|------------------|
|-------------------|------------------|
|-------------------|------------------|
|
|                           PM------|
|-------------------|------------------|
|-------------------|------------------|
|-------------------|------------------|
|--4----------------|-(4)--------------|
|--2----------------|-(2)--------------|
|-------------------|-------0-0-3-2--0-|


                                 ~~
|-----------------|----------------------|
|-12-13-15-15-----|-(15)--13-12-13-------|
|-----------------|----------------------|
|-----------------|----------------------|
|-----------------|----------------------|
|-----------------|----------------------|
|
|                             PM-------|
|-----------------|----------------------|
|-----------------|----------------------|
|-----------------|----------------------|
|-----------------|----------------------|
|--2--------------|--(2)-----------------|
|--2--------------|--(2)------0--0-3-2-0-|


    Q=205
||-----------------19p14h19p14----------|
||o-------------16-------------16-------|
||-----------16-------------------16----|
||--------16-------------------------16-|
||o-14-18-------------------------------|
||--------------------------------------|
|
|    PM
||--------------------------------------|
||o-------------------------------------|
||--------------------------------------|
||--------------------------------------|
||o--4----------------------------------|
||---2----------------------------------|


|------------------19p14h19p==14------------|
|-------------16-----------------16---------|
|----------16-----------------------16------|
|-------16-------------------------------16-|
|-14-18-------------------------------------|
|-------------------------------------------|
|
|                PM---|                PM
|-------------------------------------------|
|-------------------------------------------|
|-------------------------------------------|
|---------------------------5-----4---------|
|----------------4-----4----3-----2---------|
|----------------2-----2---------------0----|


|----------------20p15h20p15----------|
|-------------17-------------17-------|
|----------17-------------------17----|
|-------17-------------------------17-|
|-15-19-------------------------------|
|-------------------------------------|
|
|  PM
|-------------------------------------|
|-------------------------------------|
|-------------------------------------|
|-------------------------------------|
|--5----------------------------------|
|--3----------------------------------|


|------------------20p15h20p==15-------------||
|-------------17-----------------17---------o||
|----------17-----------------------17-------||
|-------17-------------------------------17--||
|-15-19-------------------------------------o||
|--------------------------------------------||
|
|                      PM              PM
|--------------------------------------------||
|-------------------------------------------o||
|--------------------------------------------||
|---------------------------6S====5----------||
|----------------5-----5----4S====3----5----o||
|----------------3-----3---------------3-----||


  Q=186
 8/4
|-16b17r==============16p14p==13-16-----13----------------|
|--------------------------------------------15-(15)------|
|---------------------------------------------------------|
|---------------------------------------------------------|
|---------------------------------------------------------|
|---------------------------------------------------------|
|
|  PM-----------|                 PM---------|        PM
|---------------------------------------------------------|
|---------------------------------------------------------|
|---------------------------------------------------------|
|-----------------3S2-----------------------------3S2-----|
|-----------------3S2-----------------------------3S2---6-|
|--0----0-0-0-0-0------0----0-----0-0-0--0-0--0-------0-4-|


                                                        ~~~
|---------------------------------------------------------------|
|-15-----13-----12---13---12--------12--------------------------|
|------------------------------14----------14-----12---14-------|
|---------------------------------------------------------------|
|---------------------------------------------------------------|
|---------------------------------------------------------------|
|
|  PM--------------|                 PM--------------|      PM
|---------------------------------------------------------------|
|---------------------------------------------------------------|
|---------------------------------------------------------------|
|---------------------3S2-------------------------------3S2-----|
|---------------------3S2-------------------------------3S2---6-|
|--0-0-0----0-0----0---------0----0--0-0-0----0-0----0------0-4-|


|-16S====17-----17-------------16-----------------17------------|
|---------------------------------------------------------------|
|--------------------14S==13--------13S====14----------14-------|
|---------------------------------------------------------------|
|---------------------------------------------------------------|
|---------------------------------------------------------------|
|
|  PM--------------|                 PM--------------|      PM
|---------------------------------------------------------------|
|---------------------------------------------------------------|
|---------------------------------------------------------------|
|---------------------3S2-------------------------------3S2-----|
|---------------------3S2-------------------------------3S2---6-|
|--0-0-0----0-0----0---------0----0--0-0-0----0-0----0------0-4-|


                                                      ~~~
|--------------------------------------------------------------|
|-----------------------------12-------------------------------|
|-/10-----9-----10---9---10--------10-----9-----10---10--------|
|--------------------------------------------------------------|
|--------------------------------------------------------------|
|--------------------------------------------------------------|
|
|   PM-------------|                PM-------------|      PM
|--------------------------------------------------------------|
|--------------------------------------------------------------|
|--------------------------------------------------------------|
|--------------------3S2------------------------------3S2------|
|--------------------3S2------------------------------3S2---6--|
|---0-0-0---0-0----0--------0----0--0-0-0---0-0----0------0-4--|


|-----------------------------------------|
|-----------------------------------------|
|-----------------------------------------|
|-----------------------------------------|
|-----------------------------------------|
|-----------------------------------------|
|
| PM--------|         PM--------|     PM
|-----------------------------------------|
|-----------------------------------------|
|-----------------------------------------|
|-------------3S2-----------------3S2-----|
|-------------3S2-----------------3S2---6-|
|-0-0-0-0-0-0-----0-0-0-0-0-0-0-0-----0-4-|


|-----------------------------------------|
|-----------------------------------------|
|-----------------------------------------|
|-----------------------------------------|
|-----------------------------------------|
|-----------------------------------------|
|
| PM--------|         PM--------|     PM
|-----------------------------------------|
|-----------------------------------------|
|-----------------------------------------|
|-------------3S2-----------------3S2-----|
|-------------3S2-----------------3S2---6-|
|-0-0-0-0-0-0-----0-0-0-0-0-0-0-0-----0-4-|


|-----------------------------------------|
|-----------------------------------------|
|-----------------------------------------|
|-----------------------------------------|
|-----------------------------------------|
|-----------------------------------------|
|
| PM--------|         PM--------|     PM
|-----------------------------------------|
|-----------------------------------------|
|-----------------------------------------|
|-------------3S2-----------------3S2-----|
|-------------3S2-----------------3S2---6-|
|-0-0-0-0-0-0-----0-0-0-0-0-0-0-0-----0-4-|


|-----------------------------------------|
|-----------------------------------------|
|-----------------------------------------|
|-----------------------------------------|
|-----------------------------------------|
|-----------------------------------------|
|
| PM--------|         PM--------|
|-----------------------------------------|
|-----------------------------------------|
|-----------------------------------------|
|-------------3S2-----------------3S2-3S2-|
|-------------3S2-----------------3S2-3S2-|
|-0-0-0-0-0-0-----0-0-0-0-0-0-0-0---------|


  Gtrs I, II
                  PM|                           PM|
|-----------------------------|-----------------------------|
|-----------------------------|-----------------------------|
|-----------------------------|-----------------------------|
|-(2)--------(2)------3-2-3---|---------------------3-2-3-1-|
|-(2)--------(2)------3-2-3-6-|-(6)--------(6)------3-2-3-1-|
|-----------------0-0-------4-|-(4)--------(4)--0-0---------|


                               4/4
                  PM|
|-----------------------------|-----|
|-----------------------------|-----|
|-----------------------------|-----|
|-(1)--------(1)------3-2-3-2-|-----|
|-(1)--------(1)------3-2-3-2-|-----|
|-----------------0-0---------|-----|


   Solo II - 2:54
      PM|   PM|   PM--|   PM----|         PM|   PM|       PM|
||------------------|-----------------|-----------------|------------------|
||o-----------------|-----------------|-----------------|------------------|
||------------------|-----------------|-----------------|------------------|
||--6-----2-----3---|---2-----0h2-2h3-|-6---------------|------------------|
||o-4-----2-----3---|---2-----0h2-2h3-|-4-----2---------|-----4------------|
||----0-0---0-0---0-|-0---0-0---------|---0-0-0-0-0-1p0-|-0-0---5-0-3-1-0--|


  1.
    PM|   PM|   PM--|   PM----|         PM|   PM|       PM--------------|
|-----------------|-----------------|-----------------|---------------------||
|-----------------|-----------------|-----------------|--------------------o||
|-----------------|-----------------|-----------------|---------------------||
|-6-----2-----3---|---2-----0h2-2h3-|-6-----2---------|---------------------||
|-4-----2-----3---|---2-----0h2-2h3-|-4-----2---------|--------------------o||
|---0-0---0-0---0-|-0---0-0---------|---0-0---0-0-1p0-|-0-0-0-0-0-0-0-0-0---||


  2.
    PM|   PM|   PM--|   PM----|         PM|   PM|         PM----|
|-----------------|-----------------|-----------------|-----------------||
|-----------------|-----------------|-----------------|-----------------||
|-----------------|-----------------|-----------------|-----------------||
|-6-----2-----3---|---2-----0h2-2h3-|-6-----2---------|-2---------------||
|-4-----2-----3---|---2-----0h2-2h3-|-4-----2---------|-2---------4-----||
|---0-0---0-0---0-|-0---0-0---------|---0-0---0-0-1p0-|---0-0-0-0---5-0-||


 Verse - 3:13
  Q=200
  Gtr I
|-----------------|-------------------|-----------------|-------------------|
|-----------------|-------------------|-----------------|-------------------|
|-----------------|-------------------|-----------------|-------------------|
|-------3-------3-|---------------3S2-|-------3-------3-|-----2S3-------2S1-|
|---------2-------|-2---6S7-------3S2-|---------2-------|-2---2S3-------2S1-|
|-0-0-0-----4-4---|---4-4S5-0-0-0-----|-4-4-4-----4-4---|---4-----0-0-0-----|
|
| Gtr II
|-----------------|-------------------|-----------------|-------------------|
|-----------------|-------------------|-----------------|-------------------|
|-----------------|-------------------|-----------------|-------------------|
|-----------------|---------------3S2-|-----------------|-----2S3-------2S1-|
|-------5-------5-|-----6S7-------3S2-|-------5-------5-|-----2S3-------2S1-|
|-0-0-0---4-0-0---|-4-0-4S5-0-0-0-----|-4-4-4---4-2-2---|-4-2-----0-0-0-----|


|-----------------|-------------------|--------|
|-----------------|-------------------|--------|
|-----------------|-------------------|--------|
|-------3-------3-|-----2S3-------2S1-|-2------|
|---------2-------|-2---2S3-------2S1-|-2------|
|-0-0-0-----4-4---|---4-----0-0-0-----|-0------|
|
|-----------------|-------------------|--------|
|-----------------|-------------------|--------|
|-----------------|-------------------|--------|
|-----------------|-----2S3-------2S1-|-2------|
|-------5-------5-|-----2S3-------2S1-|-2------|
|-0-0-0---4-0-0---|-4-2-----0-0-0-----|-0------|


   Pre-Verse - 3:22
    Gtr I
        PM----------|
||--------------------|-----------------|
||o-------------------|-----------------|
||--------------------|-----------------|
||--3S2---------------|-8S7-------------|
||o-3S2---------------|-6S5-----5-----7-|
||------0-0-0-0-0-0-0-|-----0-0---5-7---|
|
|   Gtr II
|       PM----------|
||--------------------|-----------------|
||o-------------------|-----------------|
||--------------------|-----------------|
||--3S2---------------|-8S7-----3-----5-|
||o-3S2---------------|-6S5-------3-5---|
||------0-0-0-0-0-0-0-|-----0-0---------|


  PM--------------|            PM
|-------------------|--------------------|
|-------------------|--------------------|
|-------------------|--------------------|
|-------------------|-4S5S4-2------------|
|-------------------|-2S3S2-0------------|
|-0-0-0-0-0-0-0-0-0-|---------(0)-8-7-5--|
|
| PM--------------|            PM
|-------------------|--------------------|
|-------------------|--------------------|
|-------------------|--------------------|
|-------------------|-4S5S4-2------------|
|-------------------|-2S3S2-0-----6-5-3--|
|-0-0-0-0-0-0-0-0-0-|---------(0)--------|


      PM----------|                     PM--------------|           PM|
|-------------------|-----------------|-------------------|------------------||
|-------------------|-----------------|-------------------|-----------------o||
|-------------------|-----------------|-------------------|------------------||
|-3S2---------------|-8S7-------------|-------------------|---------2p0-2h3--||
|-3S2---------------|-6S5-----5-----7-|-------------------|-4-----5-2p0-2h3-o||
|-----0-0-0-0-0-0-0-|-----0-0---5-7---|-0-0-0-0-0-0-0-0-0-|---3-4------------||
|
|     PM----------|                     PM--------------|           PM|
|-------------------|-----------------|-------------------|------------------||
|-------------------|-----------------|-------------------|-----------------o||
|-------------------|-----------------|-------------------|------------------||
|-3S2---------------|-8S7-----3-----5-|-------------------|-3-----5-2p0-2h3--||
|-3S2---------------|-6S5-------3-5---|-------------------|---3-5---2p0-2h3-o||
|-----0-0-0-0-0-0-0-|-----0-0---------|-0-0-0-0-0-0-0-0-0-|------------------||


 Chorus - 3:42
      PM                  PM                  PM                PM|       PM|
|-------------------|-------------------|-------------------|------------------|
|-------------------|-------------------|-------------------|------------------|
|-------------------|-------------------|-------------------|------------------|
|-------------------|-------------------|-------------------|------------------|
|-------5-----------|-------5-----------|-------5-----------|-3-----7-7S6------|
|-1p0-0---1p0-1-1p0-|-1p0-0---1p0-1-1p0-|-1p0-0---1p0-1-1p0-|-1-0-0-5-5S4-4-4--|
|
|     PM                  PM                  PM                PM|       PM|
|-------------------|-------------------|-------------------|------------------|
|-------------------|-------------------|-------------------|------------------|
|-------------------|-------------------|-------------------|------------------|
|-------------------|-------------------|-------------------|------------------|
|-------5-----------|-------5-----------|-------5-----------|-3-----7-7S6------|
|-1p0-0---1p0-1-1p0-|-1p0-0---1p0-1-1p0-|-1p0-0---1p0-1-1p0-|-1-0-0-5-5S4-4-4--|


      PM                  PM                  PM              PM----------|
|-------------------|-------------------|-------------------|------------------|
|-------------------|-------------------|-------------------|------------------|
|-------------------|-------------------|-------------------|------------------|
|-------------------|-------------------|-------------------|-9-6---6-------6--|
|-------5-----------|-------5-----------|-------5-----------|-----9------------|
|-1p0-0---1p0-1-1-0-|-1p0-0---1p0-1-1p0-|-1p0-0---1p0-1-1-0-|---------5-4-5----|
|
|     PM                  PM                  PM              PM----------|
|-------------------|-------------------|-------------------|------------------|
|-------------------|-------------------|-------------------|------------------|
|-------------------|-------------------|-------------------|------------------|
|-------------------|-------------------|-------------------|-6-3---3-------3--|
|-------5-----------|-------5-----------|-------5-----------|-----6------------|
|-1p0-0---1p0-1-1-0-|-1p0-0---1p0-1-1p0-|-1p0-0---1p0-1-1-0-|---------2-1-2----|


   Chorus - 3:52
    Gtrs I, II
      PM|   PM|   PM--|   PM----|         PM|   PM|       PM|
||------------------|-----------------|-----------------|------------------|
||o-----------------|-----------------|-----------------|------------------|
||------------------|-----------------|-----------------|------------------|
||--6-----2-----3---|---2-----0h2-2h3-|-6---------------|------------------|
||o-4-----2-----3---|---2-----0h2-2h3-|-4-----2---------|-----4------------|
||----0-0---0-0---0-|-0---0-0---------|---0-0-0-0-0-1p0-|-0-0---5-0-3-1-0--|


  1.
    PM|   PM|   PM--|   PM----|         PM|   PM|       PM--------------|
|-----------------|-----------------|-----------------|---------------------||
|-----------------|-----------------|-----------------|--------------------o||
|-----------------|-----------------|-----------------|---------------------||
|-6-----2-----3---|---2-----0h2-2h3-|-6---------------|---------------------||
|-4-----2-----3---|---2-----0h2-2h3-|-4-----2---------|--------------------o||
|---0-0---0-0---0-|-0---0-0---------|---0-0-0-0-0-1p0-|-0-0-0-0-0-0-0-0-0---||


  2.
    PM|   PM|   PM--|   PM----|         PM|   PM|         PM----------|
|-----------------|-----------------|-----------------|--------------------||
|-----------------|-----------------|-----------------|--------------------||
|-----------------|-----------------|-----------------|--------------------||
|-6-----2-----3---|---2-----0h2-2h3-|-6---------------|-2---------------7--||
|-4-----2-----3---|---2-----0h2-2h3-|-4-----2---------|-2---------------5--||
|---0-0---0-0---0-|-0---0-0---------|---0-0-0-0-0-1p0-|---0-0-0-0-0-0-0----||


    PM|   PM|   PM--|   PM|
|-----------------|-----------------|----------|-----*|
|-----------------|-----------------|----------|-----*|
|-----------------|-----------------|----------|-----*|
|-6-----2-----3---|---2-----2h3-3-7-|-6--------|-----*|
|-4-----2-----3---|---2-----2h3-3-5-|-4--------|-----*|
|---0-0---0-0---0-|-0---0-0---------|----------|-----*|


Tablature Legend
----------------
 h   - hammer-on
 p   - pull-off
 b   - bend
 pb  - pre-bend
 r   - bend release (if no number after the r, then release immediately)
 /  - slide into or out of (from/to "nowhere")
 s   - legato slide
 S   - shift slide
<n>  - natural harmonic
[n]  - artificial harmonic
n(n) - tapped harmonic
 ~   - vibrato
 tr  - trill
 T   - tap
 TP  - trem. picking
 PM  - palm muting
n/  - tremolo bar dip; n = amount to dip
 n  - tremolo bar down
 n/  - tremolo bar up
/n  - tremolo bar inverted dip
 =   - hold bend; also acts as connecting device for hammers/pulls
 <>  - volume swell (louder/softer)
 x   - on rhythm slash represents muted slash
 o   - on rhythm slash represents single note slash

Misc Legend
-----------
 |  - bar
||  - double bar
||o - repeat start
o|| - repeat end
*|  - double bar (ending)
 :  - bar (freetime)
 $  - Segno
 &  - Coda
Tempo markers - <E/E./Q/Q./H/H.> = BPM(8/16=s8/s16),
where s8 = swing 8ths, s16 = swing 16ths

  Visit MetalTabs.com for more metal tablature

bottom separator

Contact Us | Privacy Policy | Disclaimer
Copyright © 2001-2014 MetalTabs.com. All Rights Reserved.