top separator

Home

Forum

FAQ

Contact Us

Link to Us

MetalTabs.com logo

Bands

0-9

A

B

C

D

E

F

G

H

I

J

K

L

M

N

O

P

Q

R

S

T

U

V

W

X

Y

Z

Decapitated - "Human's Dust" Guitar Tab

Plain Text Version
More Decapitated Tabs

Hits: 7185
Rated: 3.29 out of 5 (7 votes)
Updated: 2005-12-30 01:01:46

By:

Yura


#----------------------------------PLEASE NOTE---------------------------------#
#This file is the author's own work and represents their interpretation of the #
#song. You may only use this file for private study, scholarship, or research. #
#Unless specified otherwise, this is NOT an official tab from the band members.#
#------------------------------------------------------------------------------#

  Visit MetalTabs.com for more metal tablature
  
Song : HUMAN'S DUST
Band : DECAPITATED
ALBUM : WINDS OF CREATION
Copyright Earache Records 2000 

Version 1.0 (December'05)
Transcribed by : Yura Kowalchuk
       contact : yura_kowalchuk@mail.ru

::TABULATURE LEGEND::
 " - tremolo             h - hammer on
 ~ - vibrato             \ - slide down
 p - pull off            / - slide down
 tr - trill              ^ - pinch harmonics
 = - sustained note      b - bend string
 p.m. - palm muting      t - tapping

Tuning is D [D, G, C, F, A, D]

[Riff 1a (x2)] /**very quick!!!/
||------------------------------------------------------------------|-
||o-----------------------------------------------------------------|-
||------------------------------------------------------------------|-
||----------6-7-6-----5-----4-5-4---------------------------2-------|-
||o-----4-7-------7-6---6-5-------5---4-----3-------------4---4-----|-
||--3-6-----------------------------7---5-4---4-3-4-0-3-6-------6-3-|-

-|-----------------------------------------------------------------||
-|----------------------------------------------------------------o||
-|-----------------------------------------------------------------||
-|---------6-7-6-----5-----4-5-4---------------------------2-------||
-|-----4-7-------7-6---6-5-------5---4-----3-------------4---4----o||
-|-3-6-----------------------------7---5-4---4-3-4-0-3-6-----------||

[Riff 1b (x2)]
||------------------------------------------------------------------|-
||o-----------------------------------------------------------------|-
||------------------------------------------------------------------|-
||----------6-7-6-----5-----4-5-4---------------------------2-------|-
||o-----4-7-------7-6---6-5-------5---4-----3-------------4---4-----|-
||--3-6-----------------------------7---5-4---4-3-4-0-3-6-------6-3-|-
|                                                                   |
||------------------------------------------------------------------|-
||o-----------------------------------------------------------------|-
||----------8-9-8-----7-----6-7-6---------------------------4-------|-
||------6-9-------9-8---8-7-------7---6-----5-------------6---6-3---|-
||o-5-8-----------------------------9---7-6---6-5-6---5-8---------5-|-
||--------------------------------------------------7---------------|-

  __________________________________________________________________
 |ending  1.
-|-----------------------------------------------------------------||
-|----------------------------------------------------------------o||
-|-----------------------------------------------------------------||
-|---------6-7-6-----5-----4-5-4---------------------------2-------||
-|-----4-7-------7-6---6-5-------5---4-----3-------------4---4----o||
-|-3-6-----------------------------7---5-4---4-3-4-0-3-6-----------||
 |                                                                  |
-|-----------------------------------------------------------------||
-|----------------------------------------------------------------o||
-|---------8-9-8-----7-----6-7-6---------------------------4-------||
-|-----6-9-------9-8---8-7-------7---6-----5-------------6---6-----||
-|-5-8-----------------------------9---7-6---6-5-6---5-8----------o||
-|-------------------------------------------------7---------------||

  _______________________________________________________________
 |ending 2.
-|---------------------------------------------------------------|
-|---------------------------------------------------------------|
-|---------------------------------------------------------------|
-|---------6-7-6-----5-----4-5-4---------------------------2-----|
-|-----4-7-------7-6---6-5-------5---4-----3-------------4---4-2-|
-|-3-6-----------------------------7---5-4---4-3-4-0-3-6-------0-|
 |                                                             . |
-|---------------------------------------------------------------|
-|---------------------------------------------------------------|
-|---------8-9-8-----7-----6-7-6---------------------------4-----|
-|-----6-9-------9-8---8-7-------7---6-----5-------------6---6---|
-|-5-8-----------------------------9---7-6---6-5-6---5-8-------2-|
-|-------------------------------------------------7-----------0-|
                                                               .

[BREAK]

[Outro #1]
|--------------------------------------|-------------------------------------
|--------------------------------------|-------------------------------------
|--------------------------------------|-------------------------------------
|--------------------------------------|-------------------------------------
|-2--3434-----1-----3434-----1-1-111-1-|---------5"-4"--3-1-4"--32-3-5"-4"-3-
|-0--3434-0"--1-0"--3434-0"--1-1-111-1-|-0"--3"---------3-1-----32-3-------3-
|    ....     .     ....     . . ... . |                . .     .. .       .
|--------------------------------------|-------------------------------------
|--------------------------------------|-------------------------------------
|--------------------------------------|-------------------------------------
|--------------------------------------|-------------------------------------
|----3434-----1-----3434-----1-1-111-1-|----------------3-1-----32-3-------3-
|----3434-----1-----3434-----1-1-111-1-|----------------3-1-----32-3-------3-
     ....     .     ....     . . ... .                  . .     .. .       .

-------------|
-------------|
-------------|
-------------|
-2===--------|
-0===-/13\---|
             |
-------------|
-------------|
-------------|
-------------|
-2===--------|
-0===-/13\---|

[Riff 2 (x2)]
||---------------------------------------|-
||o--------------------------------------|-
||---------------------------------------|-
||---------------------------------------|-
||o---------5"-4"--3-1-4"--32-3-5"-4"----|-
||--0"--3"---------3-1-----32-3-------3"-|-
|                  . .     .. .          |
||---------------------------------------|-
||o--------------------------------------|-
||---------------------------------------|-
||---------------------------------------|-
||o---------5"-4"--3-1-4"--32-3-5"-4"----|-
||--0"--3"---------3-1-----32-3-------3"-|-
                   . .     .. .
  ________________________________________
 |ending 1.
-|----------------------------------------||
-|---------------------------------------o||
-|----------------------------------------||
-|----------------------------------------||
-|---------5"-4"--3-1-4"--32-3-5"-4"-----o||
-|-0"--3"---------3-1-----32-3-------3-3--||
 |                . .     .. .             |
-|----------------------------------------||
-|---------------------------------------o||
-|---------4"-3"--------------------------||
-|----------------------------------------||
-|----------------3-1-4"--32-3-5"-4"-----o||
-|-0"--3"---------3-1-----32-3-------3-3--||
                  . .     .. .
  _______________________________________
 |ending 2.
-|---------------------------------------|
-|---------------------------------------|
-|---------------------------------------|
-|---------------------------------------|
-|---------5"-4"--3-1-4"--32-3-5"-4"-----|
-|-0"--3"---------3-1-----32-3-------3-3-|
 |                . .     .. .       . . |
-|---------------------------------------|
-|---------------------------------------|
-|---------4"-3"-------------------------|
-|-----------------------------4"-3"-----|
-|----------------3-1-4"--32-3-----------|
-|-0"--3"---------3-1-----32-3-------3-3-|
                  . .     .. .       . .

[Riff 3a]
|-----------------------------------|-
|-----------------------------------|-
|-----------------------------------|-
|-----------------------------------|-
|---------------7"-----4"--454--4"--|-
|-0"....-363036-----6"--------6-----|-
         ......            ....

-|--------------------------------------------|
-|--------------------------------------------|
-|--------------------------------------------|
-|----------------------------------2---------|
-|--------------454----------------4----------|
-|-7"-7h9-6"--67---7-6"-7"-6"-3"-36---5h6"-3"-|
              ......             ....

[Riff 3b (x2)]
||------------------------------------|-
||o-----------------------------------|-
||------------------------------------|-
||------------------------------------|-
||o---------------7"-----4"--454--4"--|-
||--0"....-363036-----6"--------6-----|-
|          ......            ....     |
||------------------------------------|-
||o-----------------------------------|-
||------------------------------------|-
||------------------------------------|-
||o---------------7"-----4"--454--4"--|-
||--0"....-363036-----6"--------6-----|-
           ......            ....

-|---------------------------------------------||
-|--------------------------------------------o||
-|---------------------------------------------||
-|-4"-4h6-3"------------------------2----------||
-|--------------454----------------4----------o||
-|------------67---7-6"-7"-6"-3"-36---5h6"-3"--||
              ......             ....           |
-|---------------------------------------------||
-|--------------------------------------------o||
-|---------------------------------------------||
-|----------------------------------2----------||
-|--------------454----------------4----------o||
-|-7"-7h9-6"--67---7-6"-7"-6"-3"-36---5h6"-3"--||
              ......             ....

[Outro #2]
|-----------------------------------|-
|-----------------------------------|-
|-----------------------------------|-
|-----------------------------------|-
|---------------7"-----4"--454--4"--|-
|-0"....-363036-----6"--------6-----|-
         ......            ....

-|----------------------------------------------|
-|----------------------------------------------|
-|----------------------------------------------|
-|----------------------------------2-----------|
-|--------------454----------------4--------8---|
-|-7"-7h9-6"--67---7-6"-7"-6"-3"-36---5h6"--6---|
              ......             ....

[Riff 4a]
|-------------------------------------|----------------------------------|-
|-------------------------------------|----------------------------------|-
|----------------------12\11-8/9-9----|----------------------------------|-
|--------------------------------9-9--|-10\------------------------------|-
|----------------------10\9--6/7-7----|--------------2-1-----4-7-7-6-6-3-|-
|-00000000000000000000-------------7--|--8\-00000000-3-2--22-2-5-5-4-4-1-|-
  ....................                      ........

-|---------------------------------|---------------------------------|-
-|---------------------------------|---------------------------------|-
-|---------------------------------|---------------------------------|-
-|---------------------------------|---------------------3--6h7p-6---|-
-|-3-------------------3-2-1-2-3\--|------1--1----------5-5-----8-86-|-
-|-1--0000000000000000-4-3-2-3-4\--|-0000-1--1--2tr3~-36---6---------|-
      ................ . . . .       ....             \triplets 16th/

-|------------------------------------|----------------------------------|-
-|------------------------------------|----------------------------------|-
-|---------------------12\11-8/9-9----|----------------------------------|-
-|----^--------------------------9-9--|-10\------------------------------|-
-|-/7-7~---------------10\9--6/7-7----|--------------2-1-----4-7-7-6-6-3-|-
-|--------000000000000-------------7--|--8\-00000000-3-2--22-2-5-5-4-4-1-|-
          ............                      ........

-|---------------------------------|---------------------------------|
-|---------------------------------|---------------------------------|
-|---------------------------------|---------------------------------|
-|---------------------------------|---------------------3--6h7p-6---|
-|-3-------------------3-2-1-2-3\--|------1--1----------5-5-----8-86-|
-|-1--0000000000000000-4-3-2-3-4\--|-0000-1--1--2tr3~-36---6---------|
      ................ . . . .       ....             \triplets 16th/

[Riff 4b (x2)]
||-------------------------------------|---------------------------------|-
||o------------------------------------|---------------------------------|-
||----------------------12\11-8/9-9----|---------------------------------|-
||-----^--------------------------9-9--|-8\------------------------------|-
||o-/7-7~---------------10\9--6/7-7----|-------------2\1-1/2-2/4-4/5-5\4-|-
||---------000000000000-------------7--|-6\-00000000-3\2-2/3-3/5-5/6-6\5-|-
           ............                     ........

-|---------------------------------|----------------------------------||
-|---------------------------------|---------------------------------o||
-|---------3-----------------------|----------------------------------||
-|---------------------------------|---------------------3--6h7p-6----||
-|-4\2-2\1-1-----------3-2-1-2-3\--|------1--1----------5-5-----8-86-o||
-|-5\3-3\2----00000000-4-3-2-3-4\--|-0000-1--1--2tr3~-36---6----------||
                       . . . .       ....             \triplets 16th/

[Outro #3]
|------------------------|
|------------------------|
|------------------------|
|-----^------------------|
|-/7--7~--2--2--2--2--2--|
|---------0--0--0--0--0--|
          .  .  .  .  .

[Riff 5 (x2)]
||----------------------------------------|--------------------------------|-
||o---------------------------------------|--------------------------------|-
||-------------44433333-------------------|--------------------------------|-
||----------------------------5-5-44--4/5-|--------------------------------|-
||o-2----------55544444-------------------|---------------------------5-3--|-
||--0--0".....----------0-0-0-6-6-55--5/6-|-1"--3"4-3"--4"--1"-1/33"--3-1--|-
                        . . .

-|---------------------------------------------|-------------------
-|---------------------------------------------|-------------------
-|------------44433333-------3/4-4-4/6-6-7-7-7-|-------------------
-|---------------------------------------------|-------------------
-|------------55544444-------4/5-5-5/7-7-8-8-8-|-----------------4-
-|-0"........----------0-0-0-------------------|-1"--3"4-3"--0-3---
                       . . .                                 . . .

---------------------||
--------------------o||
---------------------||
---------------------||
--------5/6\5-6\5\3-o||
-1/33"--3/4\3-4\3\1--||

[Riff 6 (x4)]
||------------------------------------|-
||o-----------------------------------|-
||------------------------------------|-
||------------------------------------|-
||o----------23532--------------------|-
||--0"......------532-3"-6-5"-6"3"-6"-|-
  _______________________________________
 |ending 1.,2.,3.
-|---------------------------------------||
-|--------------------------------------o||
-|---------------------------------------||
-|----------454--------------------------||
-|-------------754--4"-5"-2"-4"-1"--3-1-o||
-|-0".....-0------7-----------------3-1--||
                                    . .
  ________________________________________
 |ending 4.
-|----------------------------------------|
-|----------------------------------------|
-|----------------------------------------|
-|----------454---------------------------|
-|-------------754--4"-5"-2"-4"-1"--3--33-|
-|-0".....-0------7-----------------3--33-|
                                    .  ..

[RIFF 1a (x2)]
[RIFF 1b /with ending 1 only/ (x2)]

[Riff 7 /under solo/ (x6)]
||---------------------------------------------------------||
||o-------------------------------------------------------o||
||---------------------------------------------------------||
||--2=========----9=======------5==-------9--9========-----||
||o-2=========-------------3333-3==---3-6-7--7========----o||
||--0=========-77-7=======-3333-3==-0-3-6-7--7========-00--||
               ..          ....     . . .              ..

[OUTRO #1 /second bar only!!!/]
[RIFF 2 /with ending 1 only/ (x2)]
[RIFF 3a]
[RIFF 3b]
[RIFF 3a (x2)]

END OF SONG

  Visit MetalTabs.com for more metal tablature

bottom separator

Contact Us | Privacy Policy | Disclaimer
Copyright © 2001-2014 MetalTabs.com. All Rights Reserved.