top separator

Home

Forum

What's New

Submit a Tab

FAQ

Links

Contact Us

Link to Us

MetalTabs.com logo

Bands

0-9

A

B

C

D

E

F

G

H

I

J

K

L

M

N

O

P

Q

R

S

T

U

V

W

X

Y

Z

Search

What

Where
 

Atheist - "Air" Guitar Tab

Plain Text Version
More Atheist Tabs

Hits: 6217
Rated: 3.33 out of 5 (6 votes)
Updated: 2005-12-30 01:00:59

 

By:

Otiz

sendpm.gif

email.gif

Important note
This tab is available online because we obtained explicit permission from Atheist or their label.


#----------------------------------PLEASE NOTE---------------------------------#
#This file is the author's own work and represents their interpretation of the #
#song. You may only use this file for private study, scholarship, or research. #
#Unless specified otherwise, this is NOT an official tab from the band members.#
#------------------------------------------------------------------------------#

  Visit MetalTabs.com for more metal tablature
  
Song: Air
Artist: Atheist
Album: Elements

Tabbed by Finnbogi the Icelander (otiz a-t d10.is)

Standard tuning (EADGBe)
Slide = / \
h = Hammer-on
p = Pull-off
b = bend


e |---------------|
B |---------------|
G |---------------|
D |---/6-5-4--2-1-|
A |---/7-6-5--3-2-|
E |-0-------------|

e |-------------------------------------------------|
B |-------------------------------------------------|
G |--------------------------------------0----------|
D |-9~------7~------10~------9~----------2----------|
A |-------------------------------------------------|
E |-------------------------------------------------|

e |------------------202020-19----------------------|
B |-7--8--10-/17-16---------------------------------|
G |------------------------------------9--11-12-----|
D |-------------------------------------------------|
A |-------------------------------------------------|
E |-------------------------------------------------|

e |--------151515--------171717-15b-----------------|
B |---------------171717----------------------------|
G |-16-15-------------------------------------------|
D |-------------------------------------------------|
A |-------------------------------------------------|
E |-------------------------------------------------|

e |------------------202020-19----------------------|
B |-7--8--10-/17-16---------------------------------|
G |------------------------------------9--11-12-----|
D |-------------------------------------------------|
A |-------------------------------------------------|
E |-------------------------------------------------|

e |-22-21-19-17b19-17b19----------------------------|
B |-------------------------------------------------|
G |-------------------------------------------------|
D |-------------------------------------------------|
A |-------------------------------------------------|
E |-------------------------------------------------|

[00:38] Listen to the recording for what's being tremolo
	picked and what's not.
	I found it enough tabbing one guitar, other's just
	harmonizing anyways.
e |-------------------------------------------------|
B |-17----------------------------------------------|
G |-----16--------------------------------------16--|
D |---------17--16--14--------------14--16--17------|
A |---------------------14------14------------------|
E |-------------------------12----------------------|

e |-------------17--20--19--------------------------|
B |-17--19--20--------------------------------------|
G |---------------------------------------------16--|
D |---------------------------------14--16--17------|
A |-----------------------------14------------------|
E |-------------------------12----------------------|

e |---------------------------------17--20--19------|
B |---------------------17--19--20------------------|
G |-------------14--16------------------------------|
D |-14--16--17--------------------------------------|
A |-------------------------------------------------|
E |-------------------------------------------------|

e |-------------------------------------------------|
B |-17----------------------------------------------|
G |-----16------------------------------------------|
D |---------17--16--14------------------------------|
A |---------------------14--------------------------|
E |-------------------------------------------------|

[00:56]
e |-----------------------22\-----------------------|
B |-----------------17/20---------------------------|
G |-------------16----------------------------------|
D |-----14--17--------------------------------------|
A |-------------------------------------------------|
E |-15----------------------------------------------|

[01:00]
e |-------------------------------------------------|
B |-------------------------------------------------|
G |----7------------------7-------------------------|
D |----9------------------9-------------------------|
A |--7----7-7-8-7-8-7---7----7-7-8-7-8-7------------|
E |-------------------------------------------------|
PM   .    . . . . . .   .    . . . . . .

e |-------------------------------------------------|
B |-------------------------------------------------|
G |---9-----------------9---------------------------|
D |---11-7-7-8-7-8-7----11-7-7-8-7-8-7--------------|
A |-9-----------------9-----------------------------|
E |-------------------------------------------------|
PM  .    . . . . . .  .    . . . . . .

e |-------------------------------------------------|
B |-------------------------------------------------|
G |-------------------------------------------------|
D |---5----------------5----------------------------|
A |-3-4-3-3-4-3-4-3--3-4-3-3-4-3-4-3----------------|
E |-------------------------------------------------|
PM  .   . . . . . .  .   . . . . . .

[01:19]
e |-------------------------------------------------|
B |-------------------------------------------------|
G |-------------------------------------------------|
D |---5-----5---5------5-----5---5------------------|
A |-3-3-3-3-4-3-4-3--3-3-3-3-4-3-4-3----------------|
E |-------------------------------------------------|
PM  .   . . . . . .  .   . . . . . .

e |-------------------------------------------------|
B |-------------------------------------------------|
G |-------------------------------------------------|
D |---9-----9---9------9-----9---9------------------|
A |-7-7-7-7-8-7-8-7--7-7-7-7-8-7-8-7----------------|
E |-------------------------------------------------|
PM  .   . . . . . .  .   . . . . . .

e |-------------------------------------------------|
B |-------------------------------------------------|
G |-------------------------------------------------|
D |---11-----11---11------11-----11---11------------|
A |-9-9--9-9-10-9-10-9--9-9--9-9-10-9-10-9----------|
E |-------------------------------------------------|
PM  .    . . .  . .  .  .    . . .  . .  .

e |-------------------------------------------------|
B |-------------------------------------------------|
G |-------------------------------------------------|
D |---5----------------5----------------------------|
A |-3-4-3-3-4-3-4-3--3-4-3-3-4-3-4-3----------------|
E |-------------------------------------------------|
PM  .   . . . . . .  .   . . . . . .

[02:18]
e |-------------------------------------------------|
B |-------------------------------------------------|
G |-------------------------------------------------|
D |-------------------------------------------------|
A |-7--5---------7----6----2------------------------|
E |------0-0-0-7----0-8--0-0------------------------|

[02:35] The other guitar plays it an octave higher.
	Just listen to the recording for the rythm.
e |-------------------------------------------------|
B |-------------------------------------------------|
G |-------------------------------------------------|
D |-7--9--10--6-7-9-7--9--10--6--7--9-----2---------|
A |---------------------------------------2---------|
E |---------------------------------------0---------|

After this it goes back through the couple of riffs before
and then the beginning again.

  Visit MetalTabs.com for more metal tablature

bottom separator

Contact Us | Privacy Policy | Disclaimer | Legal Notice
Copyright © 2001-2014 MetalTabs.com. All Rights Reserved.