top separator

Home

Forum

What's New

Submit a Tab

FAQ

Links

Contact Us

Link to Us

MetalTabs.com logo

Bands

0-9

A

B

C

D

E

F

G

H

I

J

K

L

M

N

O

P

Q

R

S

T

U

V

W

X

Y

Z

Search

What

Where
 

Machetazo - "Delusion of Terror" Guitar Tab

Plain Text Version
More Machetazo Tabs

Hits: 2159
Rated: 4.00 out of 5 (1 vote)
Updated: 2005-12-30 00:51:22

 

By:

Robbie Filth

sendpm.gif

email.gif

Important note
This tab is available online because we obtained explicit permission from Machetazo or their label.


#----------------------------------PLEASE NOTE---------------------------------#
#This file is the author's own work and represents their interpretation of the #
#song. You may only use this file for private study, scholarship, or research. #
#Unless specified otherwise, this is NOT an official tab from the band members.#
#------------------------------------------------------------------------------#

  Visit MetalTabs.com for more metal tablature
  
Band: Machetazo
Album: Carne de Cementerio
Song: Delusion Of Terror (SOB cover)
Record Label: Razorback Records
Tuning: B E A D Gb B

-------
-------
-------
-------
-5--4--
-3--2--

--------------------------
--------------------------
--------------------------
-------3------------------
-2---2-1----5--7-4---5\4--
-0---0------3--5-2---3\2--X2
    pm

--------------------------------------------
--------------------------------------------
--------------------------------------------
-----------3-3-3-3-3------------------------
-2-2-2-2-2-1-1-1-1-1-5-5-5-5-7-4-4-4-4-5-4--
-0-0-0-0-0-----------3-3-3-3-5-2-2-2-2-3-2--X4
   pm.       . .       . .       . .

--------------------------
--------------------------
--------------------------
--------------------------
-2-2-2-2-6-5-3-3-3-3-5-4--
-0-0-0-0-4-3-1-1-1-1-3-2--X4

--------------------------
--------------------------
--------------------------
---------3-4--------------
-2-4/5-2-1-2-2-4/5-2-4-3--
-0-2/3-0-----0-2/3-0-2-1--X2


--------------------------
--------------------------
--------------------------
---------3-4--------------
-2-4/5-2-1-2-2-4/5-2-4-3--
-0-2/3-0-----0-2/3-0-2-1--X2
pm     .     .     .

--------------------------
--------------------------
--------------------------
--------------------------
-2-2-2-2-6-5-3-3-3-3-5-4--
-0-0-0-0-4-3-1-1-1-1-3-2--X4

--------------------------
--------------------------
--------------------------
---------3-4--------------
-2-4/5-2-1-2-2-4/5-2-4-3--
-0-2/3-0-----0-2/3-0-2-1--X2


--------------------------
--------------------------
--------------------------
---------3-4--------------
-2-4/5-2-1-2-2-4/5-2-4-3--
-0-2/3-0-----0-2/3-0-2-1--X2
pm     .     .     .

------------------
------------------
------------------
------------------
------------------
-0-1-3-4-0-1-4-3--X6
 trem...........

---------------
---------------
---------------
--------5/6\5--
-5/6\5--3/4\3--
-3/4\3---------X4

------------------
------------------
------------------
------------------
------------------
-0-1-3-4-0-1-4-3--X4
 trem...........

---------------
---------------
---------------
--------5/6\5--
-5/6\5--3/4\3--
-3/4\3---------X4

-------
-------
-------
-------
-5--4--
-3--2--

--------------------------
--------------------------
--------------------------
-------3------------------
-2---2-1----5--7-4---5\4--
-0---0------3--5-2---3\2--X2
    pm

--------------------------------------------
--------------------------------------------
--------------------------------------------
-----------3-3-3-3-3------------------------
-2-2-2-2-2-1-1-1-1-1-5-5-5-5-7-4-4-4-4-5-4--
-0-0-0-0-0-----------3-3-3-3-5-2-2-2-2-3-2--X4
   pm.       . .       . .       . .

--------------------------------------
--------------------------------------
--------------------------------------
--------------------------------------
---------11111111---------------------
-00000000--------333333333222222-3-2--X3
 pm.................................
 trem...............................

----------------------------------------
----------------------------------------
----------------------------------------
----------------------------------------
---------11111111----------------5-4-2--
-00000000--------333333333222222-3-2-0--
 Pm.............................
 trem...........................

THE END

any corrections mail em to: septic_flesh241@hotmail.com

  Visit MetalTabs.com for more metal tablature

bottom separator

Contact Us | Privacy Policy | Disclaimer | Legal Notice
Copyright © 2001-2014 MetalTabs.com. All Rights Reserved.