top separator

Home

Forum

What's New

Submit a Tab

FAQ

Links

Contact Us

Link to Us

MetalTabs.com logo

Bands

0-9

A

B

C

D

E

F

G

H

I

J

K

L

M

N

O

P

Q

R

S

T

U

V

W

X

Y

Z

Search

What

Where
 

Machetazo - "La Cara Mazada a Golpes" Guitar Tab

Plain Text Version
More Machetazo Tabs

Hits: 2858
Updated: 2005-12-30 00:49:38

 

By:

Robbie Filth

sendpm.gif

email.gif

Important note
This tab is available online because we obtained explicit permission from Machetazo or their label.


#----------------------------------PLEASE NOTE---------------------------------#
#This file is the author's own work and represents their interpretation of the #
#song. You may only use this file for private study, scholarship, or research. #
#Unless specified otherwise, this is NOT an official tab from the band members.#
#------------------------------------------------------------------------------#

  Visit MetalTabs.com for more metal tablature
  
Band: Machetazo
Album: Carne de Cementerio
Song: La Cara Mazada a Golpes
Record Label: Razorback Records
Tuning: B E A D Gb B

------------------------------------------------
------------------------------------------------
---------4-----------4-----------4--------------
-4-4-4-2-2---4-4-4-2-2---4-4-4-2-2-------7-7-7--
-2-2-2-0-----2-2-2-0-----2-2-2-0---6-6-6-5-5-5--
-----------------------------------4-4-4--------X4

--------------------------
--------------------------
--------------------------
--------------------------
-2-2-2-6-5-4-3-4-6-9-6-5--
-0-0-0-4-3-2-1-3-4-7-4-3--X4

------------------------------------------------
------------------------------------------------
---------4-----------4-----------4--------------
-4-4-4-2-2---4-4-4-2-2---4-4-4-2-2-------7-7-7--
-2-2-2-0-----2-2-2-0-----2-2-2-0---6-6-6-5-5-5--
-----------------------------------4-4-4--------X4

--------------------------
--------------------------
--------------------------
--------------------------
-2-2-2-6-5-4-3-4-6-9-6-5--
-0-0-0-4-3-2-1-3-4-7-4-3--X4

-------------------------------------
-------------------------------------
-------------------------------------
-------------------------------------
-2--------2--------2--------2--------
-0--------0--------0--------0--------

--------------------------------------------------------
--------------------------------------------------------
--------------------------------------------------------
--------------------------------------------------------
-5-55555555-6-66666-3-33333333-2-22222222-3-22222222-3--
-3-33333333-4-44444-1-11111111-0-00000000-1-00000000-1--X3
   pm......   .....   ........   ........   ........

-------------------------------------------------------------
-------------------------------------------------------------
-------------------------------------------------------------
------------------------------------------999999---999999----
-5-55555555-6-66666-3-33333333-2-22222222-777777-2-777777-2--
-3-33333333-4-44444-1-11111111-0-00000000--------0--------0--
   pm......   .....   ........                   .        .

------------------------------------------------
------------------------------------------------
---------4-----------4-----------4--------------
-4-4-4-2-2---4-4-4-2-2---4-4-4-2-2-------7-7-7--
-2-2-2-0-----2-2-2-0-----2-2-2-0---6-6-6-5-5-5--
-----------------------------------4-4-4--------X4

--------------------------
--------------------------
--------------------------
--------------------------
-2-2-2-6-5-4-3-4-6-9-6-5--
-0-0-0-4-3-2-1-3-4-7-4-3--X4

----------------------------------------------------------------
----------------------------------------------------------------
----------------------------------------------------------------
----------------------------------------------------------------
-2-222222-6-5-4-3-333333-5-6-9---2-222222-6-5-4-3-333333-5-6-5--
-0-000000-4-3-2-1-111111-3-4-7---0-000000-4-3-2-1-111111-3-4-3--X2

-----------------------------------------------
-----------------------------------------------
-----------------------------------------------
-----------------------------------------------
-2----6-5-4-3----4-6-9-2----6-5-4-3----5-6-5---
-0----4-3-2-1----3-4-7-0----4-3-2-1----3-4-3---

-----------------------------------------------
-----------------------------------------------
-----------------------------------------------
-----------------------------------------------
-2----6-5-4-3----4-6-9-2----6-5-4-3----5-6-5---
-0----4-3-2-1----3-4-7-0----4-3-2-1----3-4-3---
                                       pm. .

THE END

any corrections mail em to:
septic_flesh241@hotmail.com

  Visit MetalTabs.com for more metal tablature

bottom separator

Contact Us | Privacy Policy | Disclaimer | Legal Notice
Copyright © 2001-2014 MetalTabs.com. All Rights Reserved.