top separator

Home

Forum

FAQ

Contact Us

Link to Us

MetalTabs.com logo

Bands

0-9

A

B

C

D

E

F

G

H

I

J

K

L

M

N

O

P

Q

R

S

T

U

V

W

X

Y

Z

Iron Maiden - "Doctor, Doctor (UFO cover)" Guitar Tab

Plain Text Version
More Iron Maiden Tabs

Hits: 6338
Rated: 4.67 out of 5 (3 votes)
Updated: 2005-12-30 00:47:32

By:


#----------------------------------PLEASE NOTE---------------------------------#
#This file is the author's own work and represents their interpretation of the #
#song. You may only use this file for private study, scholarship, or research. #
#Unless specified otherwise, this is NOT an official tab from the band members.#
#------------------------------------------------------------------------------#

  Visit MetalTabs.com for more metal tablature
  
Iron Maiden  Doctor doctor (UFO  Cover)
Album: Virus (Single)

Intro:

Guitar 1
 Dm                        A#               Am
e----------5------------------------------------------------------------------
B--------6---6--------------6--9--6--------------5--8--5----------------------
G------7-------7----------7---------7----------7---------7--------------------
D----7-----------7------8-------------8------7-------------7------------------x5
A--5--------------------------------------------------------------------------
E---------------------6--------------------5----------------------------------

Guitar 2

e-------------------------------5-8p5-8/10-8h10p8\6-8---6\5/6\5-----------------
B----5-6---8b10-10r8-6p5-5h6---6--------------------------------8-5h6-8p5-8p5-6-
G--7-----7--------------------7-------------------------------------------------
D-------------------------------------------------------------------------------
A-------------------------------------------------------------------------------
E-------------------------------------------------------------------------------


e----------------10-12-13-10----------------------------------------------------
B----10-13-------------------10-13-13b15r13-13b15-------------------------------
G----------12b14------------------------------------5h6-8p5-8p5-6---------------
D-12----------------------------------------------------------------------------
A-------------------------------------------------------------------------------
E-------------------------------------------------------------------------------

e-----------10-12-12/13\12-10-12-10----13b15-15r13-10---------------------------
B---------10------------------------10----------------13------------------------
G-------10-----------------------------------------------12b14r12-10------------
D----12--------------------------------------------------------------12---------
A-12----------------------------------------------------------------------------
E-------------------------------------------------------------------------------



Lead Fig: (repeated before each verse)
e------------------------------------------------8b10-10r8---------------1---1-8
B--------1-----------------------5b6-6r5-3-1-1/6----------5b6-6r5-3-1-----------
G--0-2-3---2-3-2--0-2-3-2-4-6----5b6-6r5-3-2--------------5b6-6r5-3-2-3b4-4b5---
D3---------------3--------------------------------------------------------------
A-------------------------------------------------------------------------------
E-------------------------------------------------------------------------------



Main Riff:



e----------------------------------
B----------------------------------
G--7777777----------------5555555-
D--7777777-8888888-33333335555555-- x2
A--5555555-8888888-33333333333333--
E----------6666666-1111111---------




Verse: 1


e----------------------------------    ----------------
B----------------------------------    ----------------
G--7777777----------------5555555--    ----------------
D--7777777-8888888-33333335555555--    ----------------
A--5555555-8888888-33333333333333-- x4 ----------------
E----------6666666-1111111---------    -3-33--3-33-----



Chorus:
e--------------------------------------------------------------------
B--------------------------------------------------------------------
G--------------------------------------------------------------------
D--------------------------------------------------------------------
A--55-----33--------------5555555---55-----33-------------555555555--
E-----66-----11---33--55---------------66-----11--33--55-------------


Main Riff:

e----------------------------------     ------------
B----------------------------------     ------------
G--7777777----------------5555555--     ------------
D--7777777-8888888-33333335555555-- x2  ------------
A--5555555-8888888-33333333333333--     ------------
E----------6666666-1111111---------     --333555---



2nd. Verse:

e----------------------------------    ----------------------------------
B----------------------------------    ----------------------------------
G--7777777----------------5555555--    ----------------------------22222-
D--7777777-8888888-33333335555555--    ----------------------------------
A--5555555-8888888-33333333333333-- x3 --555555---------------00000------
E----------6666666-1111111---------    ---------666666-1111111-----------


Chorus:
e-------------------------------
B-------------------------------
G-------------------------------
D-------------------------------
A--55-----33-------------555555- x2
E-----66-----11--33--55---------

Main Riff

e----------------------------------
B----------------------------------
G--7777777----------------5555555--
D--7777777-8888888-33333335555555--  Fade out / The end.
A--5555555-8888888-33333333333333--
E----------6666666-1111111---------



christermchejen@hotmail.com

  Visit MetalTabs.com for more metal tablature

bottom separator

Contact Us | Privacy Policy | Disclaimer
Copyright © 2001-2014 MetalTabs.com. All Rights Reserved.