top separator

Home

Forum

What's New

Submit a Tab

FAQ

Links

Contact Us

Link to Us

MetalTabs.com logo

Bands

0-9

A

B

C

D

E

F

G

H

I

J

K

L

M

N

O

P

Q

R

S

T

U

V

W

X

Y

Z

Search

What

Where
 

Machetazo - "La Noche De Las Gaviotas" Guitar Tab

Plain Text Version
More Machetazo Tabs

Hits: 2329
Rated: 5.00 out of 5 (1 vote)
Updated: 2005-12-30 00:39:09

 

By:

Robbie Filth

sendpm.gif

email.gif

Important note
This tab is available online because we obtained explicit permission from Machetazo or their label.


#----------------------------------PLEASE NOTE---------------------------------#
#This file is the author's own work and represents their interpretation of the #
#song. You may only use this file for private study, scholarship, or research. #
#Unless specified otherwise, this is NOT an official tab from the band members.#
#------------------------------------------------------------------------------#

  Visit MetalTabs.com for more metal tablature
  
Band: Machetazo
Album: Sinfonias del Terror Ciego
Song: La noche de las gaviotas
Record Label: Razorback Records
Tuning: B E A D G B

0:16 (Clean)
-9---7------------
---8---6---10-10--
---------8-----8--
------------------
------------------
------------------
Let the 10 ring
         8

(All distorted until stated otherwise)
0:25
-9---7------------
---8---6---10-10--
---------8-----8--
------------------
------------------
------------------
Let the 10 ring
         8

0:39
-9---7------------
---8---6---10-10--
---------8-----8--
------------------
------------------
------------------
Let the 10 ring
         8

0:48
-9---7------------
---8---6---10-10--
---------8-----8--
------------------
------------------
------------------
Let the 10 ring
         8

1:00
-9---7------------
---8---6---10-10--
---------8-----8--
------------------
------------------
------------------
Let the 10 ring
         8

(Clean from now on) Also the song starts to fade.
1:12
-9---7------------
---8---6---10-10--
---------8-----8--
------------------
------------------
------------------
Let the 10 ring
         8

1:24
-9---7------------
---8---6---10-10--
---------8-----8--
------------------
------------------
------------------
Let the 10 ring
         8

1:36
-9---7------------
---8---6---10-10--
---------8-----8--
------------------
------------------
------------------
Let the 10 ring
         8

1:48
-9---7------------
---8---6---10-10--
---------8-----8--
------------------
------------------
------------------
Let the 10 ring
         8

THE END

that is all
septic_flesh241@hotmail.com

  Visit MetalTabs.com for more metal tablature

bottom separator

Contact Us | Privacy Policy | Disclaimer | Legal Notice
Copyright © 2001-2014 MetalTabs.com. All Rights Reserved.