top separator

Home

Forum

What's New

Submit a Tab

FAQ

Links

Contact Us

Link to Us

MuSpy.com

MetalTabs.com logo

Bands

0-9

A

B

C

D

E

F

G

H

I

J

K

L

M

N

O

P

Q

R

S

T

U

V

W

X

Y

Z

Search

What

Where
 

Gut - "Sperm poisonning" Guitar Tab

Plain Text Version
More Gut Tabs

Hits: 2188
Updated: 2005-12-30 00:38:40

 

By:

Robbie Filth

sendpm.gif

email.gif

Important note
This tab is available online because we obtained explicit permission from Gut or their label.


#----------------------------------PLEASE NOTE---------------------------------#
#This file is the author's own work and represents their interpretation of the #
#song. You may only use this file for private study, scholarship, or research. #
#Unless specified otherwise, this is NOT an official tab from the band members.#
#------------------------------------------------------------------------------#

  Visit MetalTabs.com for more metal tablature
  
Band: Gut
Album: Odour of torture
Song: Sperm poisonning
Record Label: R.S.R. records/Morbid records/SPV
Tuning: G# C# F# B D# G#

------------------------------------------------------------------
------------------------------------------------------------------
------------------------------------------------------------------
------------------------------------------------------------------
------------------------------------------------------------------
-6-3-5-4-6-3-5-4-6-3-5-4-6-3-5-4-6-3-5-4-6-3-5-7-2-2-2-2-2-2-2-2--X3

------------------------------------------------------------------
------------------------------------------------------------------
------------------------------------------------------------------
------------------------------------------------------------------
-8-5-7-6-8-5-7-6-8-5-7-6-8-5-7-6-8-5-7-6-8-5-7-9-4-4-4-4-4-4-4-4--
-6-3-5-4-6-3-5-4-6-3-5-4-6-3-5-4-6-3-5-4-6-3-5-7-2-2-2-2-2-2-2-2--X2

------------------------------------------------------------------
------------------------------------------------------------------
------------------------------------------------------------------
------------------------------------------------------------------
------------------------------------------------------------------
-6-3-5-4-6-3-5-4-6-3-5-4-6-3-5-4-6-3-5-4-6-3-5-7-2-2-2-2-2-2-2-2--X2

------------------------------------------------------------------
------------------------------------------------------------------
------------------------------------------------------------------
------------------------------------------------------------------
-8-5-7-6-8-5-7-6-8-5-7-6-8-5-7-6-8-5-7-6-8-5-7-9-4-4-4-4-4-4-4-4--
-6-3-5-4-6-3-5-4-6-3-5-4-6-3-5-4-6-3-5-4-6-3-5-7-2-2-2-2-2-2-2-2--X2

---------------------------------
---------------------------------
---------------------------------
---------------------------------
-2-2-2-5-5-3-3-3-5-5-2-2-2-5-5-3-
-0-0-0-3-3-1-1-1-3-3-0-0-0-3-3-1-

---------------------------------------------
---------------------------------------------
---------------------------------------------
---------------------------------------------
8\--2-2-2-5-5-3-3-3-5-5-2-2-2-5-5-3-3-3-5-5--
6\--0-0-0-3-3-1-1-1-3-3-0-0-0-3-3-1-1-1-3-3--X1
repeats without the slide.

------------------------------------------------------------------
------------------------------------------------------------------
------------------------------------------------------------------
------------------------------------------------------------------
------------------------------------------------------------------
-6-3-5-4-6-3-5-4-6-3-5-4-6-3-5-4-6-3-5-4-6-3-5-7-2-2-2-2-2-2-2-2--X2

------------------------------------------------------------------
------------------------------------------------------------------
------------------------------------------------------------------
------------------------------------------------------------------
-8-5-7-6-8-5-7-6-8-5-7-6-8-5-7-6-8-5-7-6-8-5-7-9-4-4-4-4-4-4-4-4--
-6-3-5-4-6-3-5-4-6-3-5-4-6-3-5-4-6-3-5-4-6-3-5-7-2-2-2-2-2-2-2-2--X2

---------------------------------
---------------------------------
---------------------------------
---------------------------------
-2-2-2-5-5-3-3-3-5-5-2-2-2-5-5-3-
-0-0-0-3-3-1-1-1-3-3-0-0-0-3-3-1-

---------------------------------------------
---------------------------------------------
---------------------------------------------
---------------------------------------------
8\--2-2-2-5-5-3-3-3-5-5-2-2-2-5-5-3-3-3-5-5--
6\--0-0-0-3-3-1-1-1-3-3-0-0-0-3-3-1-1-1-3-3--X1
repeats without the slide.

-------------------------------------------------------------------
-------------------------------------------------------------------
-------------------------------------------------------------------
-------------------------------------------------------------------
-----------------------------------------------------------------2-
-6-3-5-4-6-3-5-4-6-3-5-4-6-3-5-4-6-3-5-4-6-3-5-7-2-2-2-2-2-2-2-2-0-

THE END

any comments mail em to: septic_flesh241@hotmail.com

  Visit MetalTabs.com for more metal tablature

bottom separator

Contact Us | Privacy Policy | Disclaimer | Legal Notice
Copyright © 2001-2014 MetalTabs.com. All Rights Reserved.