top separator

Home

Forum

What's New

Submit a Tab

FAQ

Links

Contact Us

Link to Us

MetalTabs.com logo

Bands

0-9

A

B

C

D

E

F

G

H

I

J

K

L

M

N

O

P

Q

R

S

T

U

V

W

X

Y

Z

Search

What

Where
 

Gut - "Anal suchi" Guitar Tab

Plain Text Version
More Gut Tabs

Hits: 3150
Rated: 5.00 out of 5 (1 vote)
Updated: 2005-12-30 00:38:26

 

By:

Robbie Filth

sendpm.gif

email.gif

Important note
This tab is available online because we obtained explicit permission from Gut or their label.


#----------------------------------PLEASE NOTE---------------------------------#
#This file is the author's own work and represents their interpretation of the #
#song. You may only use this file for private study, scholarship, or research. #
#Unless specified otherwise, this is NOT an official tab from the band members.#
#------------------------------------------------------------------------------#

  Visit MetalTabs.com for more metal tablature
  
Band: Gut
Album: Odour of torture
Song: Anal suchi
Record Label: R.S.R. records/Morbid records/SPV
Tuning: G# C# F# B D# G#

---------------------------------------------------------------
---------------------------------------------------------------
---------------------------------------------------------------
---------------------------------------------------------------
-2-2-222-2-2-222-2-2-222-8888----2-2-222-2-2-222-2-2-222-8888--
-0-0-000-0-0-000-0-0-000-6666----0-0-000-0-0-000-0-0-000-6666--X4

-------------------
-------------------
-------------------
-------------------
-2---5-4---2--8-7--
-0---3-2---0--6-5--X2

---------------------------------------------------------------
---------------------------------------------------------------
---------------------------------------------------------------
---------------------------------------------------------------
-2-2-222-2-2-222-2-2-222-8888----2-2-222-2-2-222-2-2-222-8888--
-0-0-000-0-0-000-0-0-000-6666----0-0-000-0-0-000-0-0-000-6666--X4

-------------------
-------------------
-------------------
-------------------
-2---5-4---2--8-7--
-0---3-2---0--6-5--X2

-----
-----
-----
-----
--2--
--0--Let Ring

THE END

that is the whole song any comments send em to:
spetic_flesh241@hotmail.com

  Visit MetalTabs.com for more metal tablature

bottom separator

Contact Us | Privacy Policy | Disclaimer | Legal Notice
Copyright © 2001-2014 MetalTabs.com. All Rights Reserved.