top separator

Home

Forum

What's New

Submit a Tab

FAQ

Links

Contact Us

Link to Us

MetalTabs.com logo

Bands

0-9

A

B

C

D

E

F

G

H

I

J

K

L

M

N

O

P

Q

R

S

T

U

V

W

X

Y

Z

Search

What

Where
 

Sympathy - "Ascendency" Bass Tab

Plain Text Version
More Sympathy Tabs

Hits: 1782
Rated: 3.00 out of 5 (4 votes)
Updated: 2005-12-30 00:37:33

 

By:

bassist_of_light

sendpm.gif

email.gif

Important note
We did our best to reach Sympathy and ask for their permission to publish this tab. Unfortunately they did not respond to our requests or we could not find a way to contact them. This tab is available online until Sympathy tells us to take it down.


#----------------------------------PLEASE NOTE---------------------------------#
#This file is the author's own work and represents their interpretation of the #
#song. You may only use this file for private study, scholarship, or research. #
#Unless specified otherwise, this is NOT an official tab from the band members.#
#------------------------------------------------------------------------------#

  Visit MetalTabs.com for more metal tablature
  
Band:  Sympathy
Album: Abyssal Throne
Song:  Ascendancy

Copyright (c)  (Momentum Records( Scandanavia) (2005)
Version 1.0 - (sep. 14, 2005)

Transcribed By: (Aaron Metz)
Email:          (bassist_of_light@yahoo.com)


.  - palm mute           /  - slide up to
\  - slide down to       ~  - vibrato
h  - hammer on           b  - Bend
p  - pull off            Suffixes for bend
t  - tap                 f  - full bend    h - half bend
ph - pinched harmonic    q  - quarter bend t - tap bend
*  - see comment         ^  - Hold bend    r release bend
x  - Stuccatto           ~  - vibrato bend
,  - slight palm mute    () - ghost note, sustained note
"  - tremolo note        <> - Trill

Tuning E A D G

	 A Riff
|-----------------------------------------------/
|-----------------------------------------------/
|---------------------3-------------------------/
|3-5-3---3-5-3---6-5---6-5-3--3-5-3--3-5-3------/

	riff after A
|-------------------------------------------------------------------|
|-------------------------------------------------------------------|
|-----3------------1------------3------------1----------------------|
|-6-5---6-5-3--4-3---4-3-1--6-5---6-5-3--4-3---4-3-1----------------|

	breakdown during interlude
|-------------------------------------------------------------------|
|-3-2-1-0-3-2-1-0-3-2-1-0-3-2-1-0--1--------------------------------|
|-------------------------------------5--4--3-----------------------|
|-------------------------------------------------------------------|

	verse riff
/-------------------------------------------------------------------/
/--5555-3333---5-7---5555-3333---5-7--5555-3333---5-7---------------/
/------------4-----------------4----------------4---------3---------/
/-----------------------------------------------------6-5---6-5-3---/

	inter-verse riff
/-------------------------/
/-----------3-2-3-5-------/
/-------------------------/
/--5-3-5-6----------------/

verse variations        1.
/-------------------------------------------------------------------/
/--5555-3333---5-7--5555-3333---5-7--3333-2222---3-5----------------/
/------------4----------------4----------------3--------------------/
/-------------------------------------------------------------------/
			2.
/--------------------------------------------------------------------/
/--5555-3333---5-7--5555-3333---5-7--3333-2222---3-5--2222-1111---2-4/
/------------4----------------4----------------3----------------2----/
/--------------------------------------------------------------------/
			3.
/-------------------------------------------------------------------/
/--5555-3333---5-7--5555-3333---5-7-----88888-----77777-------------/
/------------4----------------4-----8-5-------8-5-------------------/
/-------------------------------------------------------------------/
			4.
/-----------------------------------------------------------------------------/
/--5555-3333---5-7--5555-3333---5-7-----88888-----77777-----66666-----55555---/
/------------4----------------4-----8-5-------8-5-------8-5-------8-5---------/
/-----------------------------------------------------------------------------/

those are all of the riffs, except the ending which is easy so you figure it out

here is the song order:

a riff x1
riff after a x1
a riff x1
riff after a x1
breakdown x1
verse riff x1 with -----1------- added
		   -4-3---4-3-1-
inter-verse riff x2
verse variations 1/2 x2
verse variations 3/4 x1 4 repeated again
ends with arpeggio figure played by two guitars

you figure out the rest the riffs im pretty sure are correct.

have fun with this one, Aaron

  Visit MetalTabs.com for more metal tablature

bottom separator

Contact Us | Privacy Policy | Disclaimer | Legal Notice
Copyright © 2001-2014 MetalTabs.com. All Rights Reserved.