top separator

Home

Forum

What's New

Submit a Tab

FAQ

Links

Contact Us

Link to Us

MuSpy.com

MetalTabs.com logo

Bands

0-9

A

B

C

D

E

F

G

H

I

J

K

L

M

N

O

P

Q

R

S

T

U

V

W

X

Y

Z

Search

What

Where
 

Von - "VON" Bass Tab

Plain Text Version
More Von Tabs

Hits: 2207
Rated: 5.00 out of 5 (1 vote)
Updated: 2005-12-17 20:52:14

 

By:

setsuna956

sendpm.gif

email.gif

Important note
We did our best to reach Von and ask for their permission to publish this tab. Unfortunately they did not respond to our requests or we could not find a way to contact them. This tab is available online until Von tells us to take it down.


#----------------------------------PLEASE NOTE---------------------------------#
#This file is the author's own work and represents their interpretation of the #
#song. You may only use this file for private study, scholarship, or research. #
#Unless specified otherwise, this is NOT an official tab from the band members.#
#------------------------------------------------------------------------------#

  Visit MetalTabs.com for more metal tablature
  
Band:  Von
Album: Satanic Blood
Song:  Von

Copyright (c)  Hellspawn Records 1999
Version 1.0 - dec. 13, 2005

Transcribed By: setsuna956
Email:          setsuna956@yahoo.com


.  - palm mute           /  - slide up to
\  - slide down to       ~  - vibrato
h  - hammer on           b  - Bend
p  - pull off            Suffixes for bend
t  - tap                 f  - full bend    h - half bend
ph - pinched harmonic    q  - quarter bend t - tap bend
*  - see comment         ^  - Hold bend    r release bend
x  - Stuccatto           ~  - vibrato bend
,  - slight palm mute    () - ghost note, sustained note
"  - tremolo note        <> - Trill

Tuning E A D G

Intro
|-------------------------------------------------------------------|-
|-2-2-2-2-2-2-2-2-2-2-2-2-2-2-2-2-2-2-2-2-2-2-2-2-2-2-2-2-2-2-2-2-2-|-
|-------------------------------------------------------------------|-
|-------------------------------------------------------------------|-

-|-------------------------------------------------------------------|-
-|-3-3-3-3-3-3-3-3-3-3-3-3-3-3-3-3-3-3-3-3-3-3-3-3-3-3-3-3-3-3-3-3-3-|-
-|-------------------------------------------------------------------|-
-|-------------------------------------------------------------------|-

-|-------------------------------------------------------------------|
-|-2-2-2-2-2-2-2-2-2-2-2-2-2-2-2-2-2-2-2-2-2-2-2-2-2-2-2-2-2-2-2-2-2-|
-|-------------------------------------------------------------------|
-|-------------------------------------------------------------------|

Verse
|---------------------------------0-0-0-0-|-
|-2-2-2-2-2-2-2-2-2-2-2-2-2-2-2-2---------|-
|-----------------------------------------|-
|-----------------------------------------|-

-|---------------------------------0-0-0-0-|
-|-3-3-3-3-3-3-3-3-3-3-3-3-3-3-3-3---------|
-|-----------------------------------------|
-|-----------------------------------------|x2

Chorus
|-------------------------|
|-2-2-2-2-2-2-2-2---------|
|-----------------3---2---|
|-------------------------|x4

([Verse]x2[Chorus]x4)x1

[Verse]x4

[Chorus]x2

Ending
|---|
|-2-|
|---|
|---|

hope you guys understand it, please notify if not

END

  Visit MetalTabs.com for more metal tablature

bottom separator

Contact Us | Privacy Policy | Disclaimer | Legal Notice
Copyright © 2001-2014 MetalTabs.com. All Rights Reserved.