top separator

Home

Forum

What's New

Submit a Tab

FAQ

Links

Contact Us

Link to Us

MetalTabs.com logo

Bands

0-9

A

B

C

D

E

F

G

H

I

J

K

L

M

N

O

P

Q

R

S

T

U

V

W

X

Y

Z

Search

What

Where
 

Malevolent Creation - "Homicidal Rant" Guitar Tab

Plain Text Version
More Malevolent Creation Tabs

Hits: 3741
Rated: 3.25 out of 5 (4 votes)
Updated: 2005-12-17 20:50:51

 

By:

sendpm.gif

email.gif

Important note
This tab is available online because we obtained explicit permission from Malevolent Creation or their label.


#----------------------------------PLEASE NOTE---------------------------------#
#This file is the author's own work and represents their interpretation of the #
#song. You may only use this file for private study, scholarship, or research. #
#Unless specified otherwise, this is NOT an official tab from the band members.#
#------------------------------------------------------------------------------#

  Visit MetalTabs.com for more metal tablature
  
Band:   Malevolent Creation
Album:  Envenomed
Song:   Homicidal Rant

Version 1.0 - 12/9/05

Transcribed By:  AZ11B



.  - palm mute           /  - slide up to
\  - slide down to       ~  - vibrato
h  - hammer on           b  - Bend
p  - pull off            Suffixes for bend
t  - tap                 f  - full bend    h - half bend
ph - pinched harmonic    q  - quarter bend t - tap bend
*  - see comment         ^  - Hold bend    r release bend
x  - Stuccatto           ~  - vibrato bend
,  - slight palm mute    () - ghost note, sustained note
"  - tremolo note        <> - Trill

Tuning B E A D F# B

 Intro
 Gtr1
|--------------------------|
|--------------------------|
|--------------------------|
|--------------------------|
|-qr5-----3--2-------------|
|------------------5b6r----|

 Gtr 2
|--------------------------|
|--------------------------|
|--------------------------|
|--------------------------|
|--------------------------|
|-qr7-----5--3-----2b3r----|


|-------------------------------------------|---------------------|
|-------------------------------------------|---------------------|
|-------------------------------------------|---------------------|
|-------------------------------------------|---------------------|
|---------2"------3"-------------2"------5"-|-----2h3------2h5----|
|0"---2"------2"---------0"--2"------2"-----|-0-2------0-2--------|
                                              . .      . .

                       Ending 1          Ending 2
|-----------------|----------------|-----------------|
|-----------------|----------------|-----------------|
|-----------------|----------------|-----------------|
|-----------------|----------------|-----------------|
|------3-2--------|------3-2---5"--|-------3-2---3---|
|2-2-2-----3-5-5--|2-2-2-----3-----|-2-2-2-----3-1---|
 . . . . . . . .   . . . . . .       . . . . . .


                      End 1     End 2          End 3
|------------------|---------|-------|------------------------|
|------------------|---------|-------|------------------------|
|------------------|---------|-------|------------------------|
|-------5------5---|---------|-------|------------5-----------|
|-------3------3---|---4/5---|---3---|-4/5--------3--333333---|
|2"--------2"------|---2/3---|---1---|-2/3---2"------111111---|


 Gtr 1
|--------------------------------------------------------------------|
|--------------------------------------------------------------------|
|--------------------------------------------------------------------|
|--------------------------------------------------------------------|
|-2---------------------------5-7-2----------------------------------|
|-0---------------------------3-5-0----------------------------------|

 Gtr 2
|--------------------------------------------------------------------|
|--------------------------------------------------------------------|
|------------------------------------------------------------4"-2"---|
|----4"-5"-4"-2"---------------------4"-5"-4"-2"----2"-5"-4"---------|
|-2--------------5"-3"-5"-2"--5-7----------------5"------------------|
|-0---------------------------3-5-0"---------------------------------|



 Gtr 1,2
|----------------------------------------------------------------------|
|----------------------------------------------------------------------|
|--------------------------------------------------------------4"-2"---|
|----4"-5"-4"-2"-----------------------4"-5"-4"-2"----2"-5"-4"---------|
|----------------5"-3"-5"-2"-----------------------5"------------------|
|-0"--------------------------3"-5"-0"---------------------------------|

 Gtr 1,2
|--------------------------------------------------------------*--*----|
|----*--*--*--*------------------------*--*--*--*-----*--*--*--3"-2"---|
|----2"-4"-2"-0"-*--*--*--*------------2"-4"-2"-0"-*--0"-4"-2"-4"-2"---|
|----4"-5"-4"-2"-4"-2"-4"-0"-----------4"-5"-4"-2"-4"-2"-5"-4"---------|
|----------------5"-3"-5"-2"-----------------------5"------------------|
|-0"--------------------------3"-5"-0"---------------------------------|

*The top lines with the * is Gtr 2 doing the harmony.

END

  Visit MetalTabs.com for more metal tablature

bottom separator

Contact Us | Privacy Policy | Disclaimer | Legal Notice
Copyright © 2001-2014 MetalTabs.com. All Rights Reserved.