top separator

Home

Forum

What's New

Submit a Tab

FAQ

Links

Contact Us

Link to Us

MetalTabs.com logo

Bands

0-9

A

B

C

D

E

F

G

H

I

J

K

L

M

N

O

P

Q

R

S

T

U

V

W

X

Y

Z

Search

What

Where
 

Malevolent Creation - "Burnt Beyond Recognition" Guitar Tab

Plain Text Version
More Malevolent Creation Tabs

Hits: 2818
Rated: 4.00 out of 5 (1 vote)
Updated: 2005-12-17 20:40:56

 

By:

sendpm.gif

email.gif

Important note
This tab is available online because we obtained explicit permission from Malevolent Creation or their label.


#----------------------------------PLEASE NOTE---------------------------------#
#This file is the author's own work and represents their interpretation of the #
#song. You may only use this file for private study, scholarship, or research. #
#Unless specified otherwise, this is NOT an official tab from the band members.#
#------------------------------------------------------------------------------#

  Visit MetalTabs.com for more metal tablature
  
Band:  Malevolent Creation
Album: The Will To Kill
Song:  Burnt Beyond Recognition

Version 1.0 - 12/11/05

Transcribed By: AZ11B
Email:          aaron.zaehringer@us.army.mil


.  - palm mute           /  - slide up to
\  - slide down to       ~  - vibrato
h  - hammer on           b  - Bend
p  - pull off            Suffixes for bend
t  - tap                 f  - full bend    h - half bend
ph - pinched harmonic    q  - quarter bend t - tap bend
*  - see comment         ^  - Hold bend    r release bend
x  - Stuccatto           ~  - vibrato bend
,  - slight palm mute    () - ghost note, sustained note
"  - tremolo note        <> - Trill

Tuning C# F# B E G# C#


 Gtr 1
|------------------------------------------------------------------|
|------------------------------------------------------------------|
|------------------------------------------------------------------|
|------------------------------------------------------------------|
|-7-----------------------7-6------------------------7-5-4---------|
|-5-----------------------5-4------------------------5-3-2---------|
                                                       . .
 Gtr 2
|------------------------------------------------------------------|
|------------------------------------------------------------------|
|------------------------------------------------------------------|
|------------------------------------------------------------------|
|-2b3r----2b3r----2b3r-----7-6---2b3r---2b3r---2b3r---7-5-4--------|
|------1-------1-------1---5-4--------1------1--------5-3-2--------|
                                                        . .
Gtr 1,2
|------------------------------------------------------------------|
|------------------------------------------------------------------|
|------------------------------------------------------------------|
|------------------------------------------------------------------|
|-2b3r----2b3r----2b3r-----7-6---2b3r---2b3r---2b3r---7-5-4--------|
|------1-------1-------1---5-4--------1------1--------5-3-2--------|
                                                        . .

 Gtr 1,2                                       End 1      End 2
|----------------------------------------------|------|--------------|
|----------------------------------------------|------|--------------|
|----------------------------------------------|------|--------------|
|----------------------------3-----------------|------|--------------|
|--------3---2-------4---3h4-------3---4---3---|------|-------6-4----|
|-111111---1---1-111---1-------111---1---1---1-|--4v--|--4444-4-2----|
           .   .       .             .   .   .           ....

 Gtr 1,2
|-----------------------------------------------|
|-----------------------------------------------|
|-----------------------------------------------|
|--------------------------------------------8--|
|-------7h8---7h8---7h8---7h8---7h8---7h8----6--|
|-0-0-0-----0-----0-----0-----0-----0-----0--6--|
  . . .     .     .     .     .     .     .

|---------------------------------------------------|
|---------------------------------------------------|
|---------------------------------------------------|
|---------------------------------------------------|
|-------7h8---7h8---7h8-----------------------------|
|-0-0-0-----0-----0------0-2-3-5-3-2-0-2-3-5-3-2--|
  . . .     .     .      . . . . . . . . . . . .

 Gtr 1,2
|----------------------------------------------|
|----------------------------------------------|
|----------------------------------------------|
|-------------------------------------------5--|
|-------------------------------------------3--|
|-0-0-0-0-0-0-1-1-1-1-1-1-0-0-0-0-0-0-1-1-1-3--|
  . . . . . . . . . . . . . . . . . . . . .

|-------------------------------------------------|
|-------------------------------------------------|
|-------------------------------------------------|
|-------------------------------------------------|
|-------------------------------------------------|
|-0-0-0-0-0-0-1-1-1-1-1-1-0-2-3-5-3-2-0-2-3-5-3-2-|
  . . . . . . . . . . . . . . . . . . . . . . . .

|----------------------------------------------|
|----------------------------------------------|
|----------------------------------------------|
|-------------------------------------------3--|
|-------------------------------------------3--|
|-0-0-0-0-0-0-1-1-1-1-1-1-0-0-0-0-0-0-1-1-1-1--|
  . . . . . . . . . . . . . . . . . . . . .

|-------------------------------------------------|
|-------------------------------------------------|
|-------------------------------------------------|
|-------------------------------------------------|
|-------------------------------------------------|
|-0-0-0-0-0-0-1-1-1-1-1-1-0-2-3-5-3-2-0-2-3-5-3-2-|
  . . . . . . . . . . . . . . . . . . . . . . . .

 Gtr 1,2
|----------------------------------------------|
|----------------------------------------------|
|----------------------------------------------|
|-------------------------------------2-----3--|
|-------2-----3-----2-----5-----3-----------3--|
|-0-0-0---0-0---0-0---0-0---0-0---0-0---0-0-1--|
  . . .   . .   . .   . .   . .   . .   . .

|--------------------------------------------------|
|--------------------------------------------------|
|--------------------------------------------------|
|------------------------*2------------------------|
|-------2-----3-----2------------------------------|
|-0-0-0---0-0---0-0---0-0-0-2-3-5-3-2-0-2-3-5-3----|
  . . .   . .   . .   . . . . . . . . . . . . .
*Gtr 2 plays this instead of the 0.

Gtr 1,2
|-----------|
|-----------|
|-----------|
|---5---5---|
|---3---3---|
|-----------|
                                End 1       End 2
|----------------------------|-----------|----------|
|----------------------------|-----------|----------|
|----------------------------|-----------|----------|
|----------------------------|-----------|----------|
|----------6p5---------------|--7p5------|--5h6-8---|
|-6p555555-----555556h555555-|------6p5--|----------|
     .....     .....   .....

                               End 1    End 2
|----------------------------|-------|----------|
|----------------------------|-------|----------|
|----------------------------|-------|----------|
|----------------------------|-------|----------|
|-9/10-----9/10-----9/10-----|--9\8--|--5h6-8---|
|-7/8-8888-7/8-8888-7/8-8888-|--7\6--|----------|
      ....     ....     ....

END

  Visit MetalTabs.com for more metal tablature

bottom separator

Contact Us | Privacy Policy | Disclaimer | Legal Notice
Copyright © 2001-2014 MetalTabs.com. All Rights Reserved.