top separator

Home

Forum

What's New

Submit a Tab

FAQ

Links

Contact Us

Link to Us

MuSpy.com

MetalTabs.com logo

Bands

0-9

A

B

C

D

E

F

G

H

I

J

K

L

M

N

O

P

Q

R

S

T

U

V

W

X

Y

Z

Search

What

Where
 

Burzum - "Moti Ragnarokum" Guitar Tab

Plain Text Version
More Burzum Tabs

Hits: 5403
Rated: 4.33 out of 5 (3 votes)
Updated: 2005-12-11 04:32:45

 

By:

sendpm.gif

email.gif

Important note
This tab is available online because we obtained explicit permission from Burzum or their label.


#----------------------------------PLEASE NOTE---------------------------------#
#This file is the author's own work and represents their interpretation of the #
#song. You may only use this file for private study, scholarship, or research. #
#Unless specified otherwise, this is NOT an official tab from the band members.#
#------------------------------------------------------------------------------#

  Visit MetalTabs.com for more metal tablature
  
Band:  BURZUM
Album: Daudi Baldr
Song:  Moti Ragnarokum

Copyright (c)  Mysantropic 1997
Version 1.0 - 1997

Transcribed By: Necrologistis XIV
Email:          vatalan@hotmail.com


.  - palm mute           /  - slide up to
\  - slide down to       ~  - vibrato
h  - hammer on           b  - Bend
p  - pull off            Suffixes for bend
t  - tap                 f  - full bend    h - half bend
ph - pinched harmonic    q  - quarter bend t - tap bend
*  - see comment         ^  - Hold bend    r release bend
x  - Stuccatto           ~  - vibrato bend
,  - slight palm mute    () - ghost note, sustained note
"  - tremolo note        <> - Trill

Tuning Bb Eb Ab Db Gb Bb

PART ONE

Sounds like Piano.
 First riff                            --------------->
              Second time stops here | first time
|------------------------------------|-------------------------------|
|------------------------------------|-------------------------------|
|--------5--10---6-5-3--11-10-8--6-5-|-1-----------------------------|
|------------------------------------|-------------------------------|
|--4--8------------------------------|-------------------------------|
|------------------------------------|-------------------------------|
*2
 Second riff

|-------------------------------------------------------------------|
|-------------------------------------------------------------------|
|-----------------------------------10------------------------------|
|----------13-11-10----------13-11-------------13-11-10---------13-11
|--8-11-10-----------8-11-10------------8-11-10---------8-11-10-----|
|-------------------------------------------------------------------|
*2

 Last riff
|-------------------------------------------------------------------|
|-------------------------------------------------------------------|
|------12-13-12----------12-13-15-13------12-13-12------------------|
|---10----------11----10---------------10----------11---10-11-13-11-|
|-8-----------------8----------------8----------------8-------------|
|-------------------------------------------------------------------|


PART TWO

At 0'57 enter the "Cello" and the "Violin".


PIANO :

|-------------------------------------------------------------------|
|-------------------------------------------------------------------|
|-------------------------------------------------------------------|
|-------------------------------------------------------------------|
|--4---4-6-4-3--3--6-4-3----4----4-6-4-3--3--4-6-4------------------|
|---4h1-----------3-------6---4h1-----------3-----------------------|
*2

VIOLIN :

|-------------------------------------------------------------------|
|-------------------------------------------------------------------|
|-------------------------------------------------------------------|
|-13-----------12----------13------------12-------------------------|
|-11-----------10----------11------------10-------------------------|
|-------------------------------------------------------------------|
*2

CELLO :

|-------------------------------------------------------------------|
|-------------------------------------------------------------------|
|-------------------------------------------------------------------|
|-6---------------5--------6--------------5-------------------------|
|-4---------------3--------4--------------3-------------------------|
|-------------------------------------------------------------------|

++++after....++++

PART THREE

PIANO :

|-------------------------------------------------------------------|
|-------------------------------------------------------------------|
|-------------------------------------------------------------------|
|-------------------------------------------------------------------|
|-8--10-11-10-8-8--10-11-13-11--8--10-11-10-8-8---3-4-6-3-----------|
|--8-------------8---------------8----------------------------------|

VIOLIN :

|-------------------------------------------------------------------|
|-------------------------------------------------------------------|
|-12---------10---------------12-------------10---------------------|
|-10----------8---------------10-------------8----------------------|
|-------------------------------------------------------------------|
|-------------------------------------------------------------------|

CELLO :

|-------------------------------------------------------------------|
|-------------------------------------------------------------------|
|-------------------------------------------------------------------|
|-10---------8--------------10-------------8------------------------|
|-8----------6--------------8--------------6------------------------|
|-------------------------------------------------------------------|


Play PART ONE after that .Percucions enters.
PART ONE BIS.

====================================================================
TIMPANI

|-------------------------------------------------------------------|
|-------------------------------------------------------------------|
|-------------------------------------------------------------------|
|-------------------------------------------------------------------|
|-|--------|-----(-(------|--------|------(-(---------------------------|
|-*--****--*-----*-*------*--****--*------*-*-----------------------|
  >    .   >       >      >    .   >        >
ORCHESTRAL CRASH-CYMBAL

|-------------------------------------------------------------------|
|-------------------------------------------------------------------|
|-------------------------------------------------------------------|
|-------------------------------------------------------------------|
|-x--------x------x-x----------------------x------------------------|
|-------------------------------------------------------------------|
====================================================================

PART FOUR

VIOLIN SOLO (3'09 and 8'36)

(Play it with happiness as the music deals exactly with the contrary)
|-------------------------------------------------------------------|
|-------------------------------------------------------------------|
|-------------------------------------------------------------------|
|----11--10--8--10--11--10--8-----8--6--5--6--8--10--11-------------|
|-8----------------------------4------------------------------------|
|-------------------------------------------------------------------|


|-------------------------------------------------------------------|
|-------------------------------------------------------------------|
|-------------------------------------------------------------------|
|----11--10--8--10--11--10--8-----8--6--5--6--8--10--8--------------|
|-8----------------------------4------------------------------------|
|-------------------------------------------------------------------|


MODEL :

-PART ONE
-PART TWO
-PART THREE
-PART TWO with TIMPANI
-PART THREE with CRASH
-PART TWO with TIMPANI
-PART THREE with CRASH*
-PART TWO with TIMPANI*
-PART FOUR (violin solo)
-PART ONE (Last riff)
-PART THREE
-PART TWO with TIMPANI
-PART THREE with CRASH
-PART TWO with TIMPANI
-PART THREE with CRASH*
-PART TWO with TIMPANI
-PART ONE (Last riff)
-PART TWO
-PART THREE (with the first low tom at the beggining)
-PART TWO with TIMPANI
-PART THREE with CRASH
-PART TWO with TIMPANI
-PART THREE with CRASH
-PART TWO with TIMPANI
-PART FOUR (solo violin only)


* = Special Violin variation :


|-------------------------------------------------------------------|
|-------------------------------------------------------------------|
|-12--10--10--8/10--12--10--12--10-8-(6)----------------------------|
|-10------8---------10----------------------------------------------|
|-------------------------------------------------------------------|
|-------------------------------------------------------------------|
*2




I hope you'll kidding with that , try to do this with two Guitars ,
one Bass and a couple drum set , enjoy =)
 It's one of my favorites ;)

  Visit MetalTabs.com for more metal tablature

bottom separator

Contact Us | Privacy Policy | Disclaimer | Legal Notice
Copyright © 2001-2014 MetalTabs.com. All Rights Reserved.