top separator

Home

Forum

What's New

Submit a Tab

FAQ

Links

Contact Us

Link to Us

MuSpy.com

MetalTabs.com logo

Bands

0-9

A

B

C

D

E

F

G

H

I

J

K

L

M

N

O

P

Q

R

S

T

U

V

W

X

Y

Z

Search

What

Where
 

XXX Maniak - "Baptized In Semen And Steel" Guitar Tab

Plain Text Version
More XXX Maniak Tabs

Hits: 2244
Rated: 1.00 out of 5 (1 vote)
Updated: 2005-12-11 04:32:30

 

By:

Robbie Filth

sendpm.gif

email.gif

Important note
This tab is available online because we obtained explicit permission from XXX Maniak or their label.


#----------------------------------PLEASE NOTE---------------------------------#
#This file is the author's own work and represents their interpretation of the #
#song. You may only use this file for private study, scholarship, or research. #
#Unless specified otherwise, this is NOT an official tab from the band members.#
#------------------------------------------------------------------------------#

  Visit MetalTabs.com for more metal tablature
  
Band: XXX Maniak
Album: Harvesting the Cunt Nectar
Song: Baptized In Semen And Steel
Record Label: Red Candle Records
Tuning: A D G C E A

--------------
--------------
--------------
--------------
-66-77-33-55--
-44-55-11-33--X6

----------------------
----------------------
----------------------
----------------------
----------------------
-4444-5555-1111-3333--X4
 pm.. .... .... ....

------------
------------
------------
-----6------
-7---4---5--
-5-------3--

----------------------
----------------------
----------------------
----------------------
----------------------
-4444-5555-1111-3333--X4

----------------------
----------------------
----------------------
----------------------
-4444-5555------------
-----------6666-8888--X3

----------------------
----------------------
----------------------
----------------------
-4444-5555------*--5--
-----------6666-8--3--
* pinch harmonic

THE END

any corrections mail em to: septic_flesh241@hotmail.com

  Visit MetalTabs.com for more metal tablature

bottom separator

Contact Us | Privacy Policy | Disclaimer | Legal Notice
Copyright © 2001-2014 MetalTabs.com. All Rights Reserved.