#----------------------------------PLEASE NOTE---------------------------------#
#This file is the author's own work and represents their interpretation of the #
#song. You may only use this file for private study, scholarship, or research. #
#Unless specified otherwise, this is NOT an official tab from the band members.#
#------------------------------------------------------------------------------#

  Visit MetalTabs.com for more metal tablature
  
Taken with permission from www.AtTheGates.com

                    A T   T H E    G A T E S   -   U N T O    O T H E R S
                         From the Album   SLAUGHTER OF THE SOUL
		         Copyright 1995   EARACHE


TRANSCRIBED BY : ANDERS BJORLER / AT THE GATES July 2000
NOTES : Well, i'm not too familiar writing tabs, but I'll give it a shot.
	There are no exact bars that measure time, but my advice is:
	Listen to the song and try to figure it out with the help from these tabs.
	If you have any q's, please e-mail them to me (dahaunted@hotmail.com)


TUNING: B (every string down 2.5 steps)


.  - palm mute                    /  - slide up to
\  - slide down to                ~  - vibrato
h  - hammer on                    b  - bend
p  - pull off                          Suffixes for bend
ph - pinch harmonic                        f - full bend    h - half bend
*  - see comment                           r - release      t - tap bend
X  - percussion mute                       ~ - vibrato bend
@  - slight palm mute             () - ghost note, sustained note
"  - tremolo pick until next note


Tune Down 2.5 steps to B




RIFF 1    PLAY 4 TIMES
|----------------------------------------------------------------|
|----------------------------------------------------------------|GTRS
|----------------------------------------------------------------|1&2
|----7-6----------------------7-6--------------------------------|
|--8-----7-8-5--------------8-----7-8-5-8-888-8-888--------------|
|--------------0-000-0-000---------------------------------------|
               . ... . ...              . ... . ...




RIFF 2a play one time
|----------------------------------------------------------------|
|----------------------------------------------------------------|GTRS
|----------------------------------------------------------------|1&2
|-----------6-5------------6-5------------6-5---------------9----|
|--7--7--7------8-7--7--7------8-7--7--7------8-7--7--7h8p7-7----|
|---00-00-00-------00-00-00-------00-00-00-------00-00-----------|
    .. .. ..       .. .. ..       .. .. ..       .. ..




RIFF 2b play two times
|----------------------------------------------------------------|
|----------------------------------------------------------------|GTR 1
|----------------------------------------------------------------|
|-----------6-5------------6-5------------6-5---5--5~------------|
|--7--7--7------7-8--8--8------8-7--7--7------7-------8--8~------|
|---00-00-00-------00-00-00-------00-00-00-------00----00--------|
|   .. .. ..       .. .. ..       .. .. ..       ..    ..        |
|								 |
|                                                                |
|----------------------------------------------------------------|
|----------------------------------------------------------------|GTR 2
|-9--------------10--------------9--------------7----------------|
|----------------------------------------------------------------|
|-7---------------8--------------7--------------5----------------|
|----------------------------------------------------------------|



Play Riff 1 four times



RIFF 3 (chorus) play one whole time
|--------------------------------------------------|
|-8-8-8-5-5-5-0-0-0-8-8-8--------------------------|
|-------------------------8-8-8-5-5-5-0-0-0--------|GTR 1
|--------------------------------------------------|
|-------------------------------------------6-6-6--|
|--------------------------------------------------|
|                                                  |
| 					           |
|						   |
|       					   |
|--------------------------------------------------|
|--------------------------------------------------|
|--------------------------------------------------|GTR 2
|------------------------------------10----10------|
|-------7-----9-----6h7h9-------6------------------|
|-0-000---000---000-------8-888---888-8-----8------|
| . ...   ...   ...       . ...   ...
|
|
|
|--------------------------------------------------|
|-8-8-8-5-5-5-0-0-0-8-8-8-7-7-7-8-8-8--------------|
|-------------------------------------4~-----------|GTR 1
|--------------------------------------------------|
|--------------------------------------------------|
|--------------------------------------------------|
|						   |
|						   |
|						   |
|						   |
|--------------------------------------------------|
|--------------------------------------------------|
|--------------------------------------------------|GTR 2
|-------------------------9-----5-----4------------|
|-------7-----9-----6h7h9--------------------------|
|-0-000---000---000-------7-----3-----2------------|
| . ...   ...   ...


 cont.
|--------------------------------------------------|
|-8-8-8-5-5-5-0-0-0-8-8-8--------------------------|
|-------------------------8-8-8-5-5-5-0-0-0--------|GTR 1
|--------------------------------------------------|
|-------------------------------------------6-6-6--|
|--------------------------------------------------|
|                                                  |
| 					           |
|						   |
|       					   |
|--------------------------------------------------|
|--------------------------------------------------|
|--------------------------------------------------|GTR 2
|------------------------------------10----10------|
|-------7-----9-----6h7h9-------6------------------|
|-0-000---000---000-------8-888---888-8-----8------|
| . ...   ...   ...       . ...   ...
|
|
|
|--------------------------------------------------|
|-8-8-8-5-5-5-0-0-0-8-8-8-7-7-7-8-8-8--------------|
|-------------------------------------4~-----------|GTR 1
|--------------------------------------------------|
|--------------------------------------------------|
|--------------------------------------------------|
|						   |
|						   |
|						   |
|						   |
|--------------------------------------------------|
|--------------------------------------------------|
|--------------------------------------------------|GTR 2
|-------------------------7-----7-----7------------|
|-------7-----9-----6h7h9-5-----5-----5------------|
|-0-000---000---000--------------------------------|
| . ...   ...   ...



Play Riff 2b two times
Play Riff 1  four times
Play Riff 3  one whole time




RIFF 4 (similar to guitar 2 on riff 3) play one time
|--------------------------------------------------|
|--------------------------------------------------|
|--------------------------------------------------|GTR
|------------------------------------------h12-----|1&2
|-------7-----9-----6h7h9-------6--------h10-h10---|
|-0-000---000---000-------8-888---888-8h11-----h11~|
| . ...   ...   ...       . ...   ...
|
|
|--------------------------------------------------|
|--------------------------------------------------|
|--------------------------------------------------|GTR
|--------------------------------------------------|1&2
|-------7-----9-----6h7h9--------------------------|
|-0-000---000---000-------7-7-7-3-3-3-2-2-2-2-2-2--|
| . ...   ...   ...       . . . . . . . . . . . .



 cont.
|--------------------------------------------------|
|--------------------------------------------------|
|--------------------------------------------------|GTR
|------------------------------------------h12-----|1&2
|-------7-----9-----6h7h9-------6--------h10-h10---|
|-0-000---000---000-------8-888---888-8h11-----h11~|
| . ...   ...   ...       . ...   ...
|
|
|--------------------------------------------------|
|--------------------------------------------------|
|--------------------------------------------------|GTR
|-------------------------9-----5-----4------------|1&2
|-------7-----9-----6h7h9--------------------------|
|-0-000---000---000-------7-----3-----2------------|
| . ...   ...   ...





 RIFF 5 (SOLORIFF) + SOLO - play two times
|--------------------------------------------------|
|--------------------------------------------------|
|--------------------------------------------------|GTR 1
|-2-----------2------------------------------------|RYTHM
|-2-----------2------------------------------------|
|-0---0-0-0-0-0---0-0-0-0-8---8-8-8-8-8---8-8-8-8--|
|       . . .       . . .       . . .       . . .
|
|
|--------------------------------------------------|
|-8-5-0-8-5-0-8-5-0-8-5-0--------------------------|
|-------------------------8-5-0-8-5-0-8-5-0-8-5-0--|GTR 2
|--------------------------------------------------|solo
|--------------------------------------------------|
|--------------------------------------------------|


 cont.
|--------------------------------------------------|
|--------------------------------------------------|
|--------------------------------------------------|GTR 1
|-5---5-5-5-5-5---5-5-5-5-9---9-9-9-9-9---9-9-9-9--|RYTHM
|--------------------------------------------------|
|-3---3-3-3-3-3---3-3-3-3-7---7-7-7-7-7---7-7-7-7--|
|       . . .       . . .       . . .       . . .
|
|
|-------------------------------------5-----7------|
|-8-5-0-8-5-0-8-5-0-8-5-0-7-4-0-8-5-0---7-0---8-0--|
|--------------------------------------------------|GTR 2
|--------------------------------------------------|solo
|--------------------------------------------------|
|--------------------------------------------------|




 (RIFF 6) - RING OUT CHORDS
          - two clean guitars (nylonstringed acoustics) // same tuning
	  - two guitars distorted

 clean fill 1 (2 clean guitars)
|-7------------------------|
|-8-------8----------------|CLEAN
|-9-------8-------9--------|GTR 1
|-9-------10------9--------|
|-7-------10------10-------|
|-0-------8----------------|
|
|
|
|--------------------------|
|-8-5-0-8---------8-5-0-8--|CLEAN
|---------8-5-0------------|GTR 2
|--------------------------|
|---------------6----------|
|--------------------------|


 HEAVY FILL #1 BOTH GUITARS (2 distorted)
|--------------------------|
|--------------------------|
|--------------------------|GTR 1&2
|-5---4---5---4------------|
|--2---2---2---2-----------|
|---0---0---0---0----------|
    .   .   .   .


 clean fill 2 (2 clean guitars)
|-7------------------------|
|-8-------8----------------|CLEAN
|-9-------8-------9--------|GTR 1
|-9-------10------9--------|
|-7-------10------10-------|
|-0-------8----------------|
|
|
|
|-7------------------------|
|-----8-5---------12-------|CLEAN
|--------4--------9--------|GTR 2
|---------5-2-----9--------|
|-------------2------------|
|---------------3----------|


 HEAVY FILL #2 BOTH GUITARS (2 distorted)
|--------------------------|
|--------------------------|
|--------------------------|GTR 1&2
|-5---4---5---4-----2------|
|--2---2---2---2----2------|
|---0---0---0---0---0------|
    .   .   .   .






RIFF 7a - play one whole time
|--------------------------------------------------------|
|--------------------------------------------------------|GTR 1
|--------------------------------------------------------|
|-7--7--7--7--------------5--5--5--4--2--2---5-----4-----|
|-------------6--6--6--6---22-22-22-22---------2-----2---|
|--55-55-55-55*22-22-22-22-------------00-00-----0-----0-|
|  .. .. .. .. .. .. .. .. .. .. .. .. .. ..     .     .
| * these are 2's (not 22's)
|
|
|
|--------------------------------------------------------|
|--------------------------------------------------------|GTR 2
|--------------------------------------------------------|
|-7--7--7--7--------------9--9--9--9---------5-----4-----|
|-------------6--6--6--6--------------7--7-----2-----2---|
|--55-55-55-55*22-22-22-22-77-77-77-77-00-00-----0-----0-|
|  .. .. .. .. .. .. .. .. .. .. .. .. .. ..     .     .
|
|
| Bass (important on this riff.)
| Tune down a regular 4 string 2 steps to B)
|--------------------------------------------------------|
|--------------------------------------------5-----4-----|BASS
|-555555888888222222555555---------------------2-----2---|
|-------------------------333333333222000000-----0-----0-|




 cont.
|--------------------------------------------------------|
|--------------------------------------------------------|GTR 1
|--------------------------------------------------------|
|-7--7--7--7--------------5--5--5--4---------5-----4-----|
|-------------6--6--6--6---22-22-22-22-7~------2-----2---|
|--55-55-55-55*22-22-22-22-----------------------0-----0-|
|  .. .. .. .. .. .. .. .. .. .. .. ..           .     .
| * these are 2's (not 22's)
|
|
|
|--------------------------------------------------------|
|--------------------------------------------------------|GTR 2
|--------------------------------------------------------|
|-7--7--7--7--------------9--9--9--9---------5-----4-----|
|-------------6--6--6--6---------------7~------2-----2---|
|--55-55-55-55*22-22-22-22-77-77-77-77-----------0-----0-|
|  .. .. .. .. .. .. .. .. .. .. .. ..           .     .
|
|
|Bass
|--------------------------------------------------------|
|--------------------------------------------5-----4-----|BASS
|-555555888888222222555555---------------------2-----2---|
|-------------------------333333333222-0---------0-----0-|






RIFF 7b - play one whole time
|--------------------------------------------------------|
|--------------------------------------------------------|
|-------------8------------------------------------------|GTR 1
|-7------10-----------10--9--------5-2-------5-----4-----|
|-------------6----------------------2---------2-----2---|
|-5-------8------------8--7--------3-0-----------0-----0-|
|						 .     .
|
|
|
|--------------------------------------------------------|
|--------------------------------------------------------|
|--------------------------------------------------------|GTR 2
|-7-------7---4--------4--5--------5-2-------5-----4-----|
|------------------------------------2---------2-----2---|
|-5-------5---2--------2--3--------3-0-----------0-----0-|
                                                 .     .




|--------------------------------------------------------|
|--------------------------------------------------------|
|-------------8------------------------------------------|GTR 1
|-7------10-----------10--9--------5-2-------5-----4-----|
|-------------6----------------------2---------2-----2---|
|-5-------8------------8--7--------3-0-----------0-----0-|
|						 .     .
|
|
|
|--------------------------------------------------------|
|--------------------------------------------------------|
|--------------------------------------------------------|GTR 2
|-7-------7---4--------4--5--------5---------5-----4-----|
|----------------------------------------------2-----2---|
|-5-------5---2--------2--3--------3-7~----------0-----0-|
                                                 .     .



Play Riff 3 as above
Play Riff 2a two times
Play Riff 2b two times


but the 2:nd time end with:

|----------------------------------------------------------------|
|-----------------------------------------------8----------------|GTR 1
|---------------------------------------------------10-----------|
|-----------6-5------------6-5------------6-5---5-------9-9-9-9--|
|--7--7--7------7-8--8--8------8-7--7--7------7-----8---7-7-7-7\-|
|---00-00-00-------00-00-00-------00-00-00-----------------------|
|   .. .. ..       .. .. ..       .. .. ..                       |
|								 |
|                                                                |
|----------------------------------------------------------------|
|----------------------------------------------------------------|GTR 2
|-9--------------10--------------9-------------------------------|
|-----------------------------------------------7---7---9-9-9-9--|
|-7---------------8--------------7--------------5---5---7-7-7-7\-|
|----------------------------------------------------------------|

  Visit MetalTabs.com for more metal tablature