top separator

Home

Forum

What's New

Submit a Tab

FAQ

Links

Contact Us

Link to Us

MetalTabs.com logo

Bands

0-9

A

B

C

D

E

F

G

H

I

J

K

L

M

N

O

P

Q

R

S

T

U

V

W

X

Y

Z

Search

What

Where
 

XXX Maniak - "A Knife Called Pussylicker" Guitar Tab

Plain Text Version
More XXX Maniak Tabs

Hits: 2754
Rated: 4.50 out of 5 (2 votes)
Updated: 2005-12-11 04:31:49

 

By:

Robbie Filth

sendpm.gif

email.gif

Important note
This tab is available online because we obtained explicit permission from XXX Maniak or their label.


#----------------------------------PLEASE NOTE---------------------------------#
#This file is the author's own work and represents their interpretation of the #
#song. You may only use this file for private study, scholarship, or research. #
#Unless specified otherwise, this is NOT an official tab from the band members.#
#------------------------------------------------------------------------------#

  Visit MetalTabs.com for more metal tablature
  
Band: XXX Maniak
Album: Harvesting the Cunt Nectar
Song: A Knife Called PussyLicker
Record Label: Red Candle Records
Tuning: A D G C E A

---------------------------------------------
---------------------------------------------
---------------------------------------------
---------------------------------------------
11-11-7-7------------------------------------
-9--9-5-5-444444444444444444444444444444444--


---------------------------------------------
---------------------------------------------
---------------------------------------------
---------------------------------------------
11-11-7-7------------------------------------
-9--9-5-5-444444444444444444444444444444444--


---------------------------------------------
---------------------------------------------
---------------------------------------------
---------------------------------------------
11-11-7-7------------------------------------
-9--9-5-5-666666666666666666666666666666666--
          pm...............................

----------------------------------------------
----------------------------------------------
----------------------------------------------
----------------------------------------------
-13-13-9-9------------------------------------
-11-11-7-7-666666666666666666666666666666666--
           pm...............................

----------------------------------------------
----------------------------------------------
----------------------------------------------
----------------------------------------------
-13-13-9-9------------------------------------
-11-11-7-7-999999999999999999999999999999999--
           pm...............................

-----------------------------------------------
-----------------------------------------------
-----------------------------------------------
-----------------------------------------------
-16-16-12-12-----------------------------------
-14-14-10-10-999999999999999999999999999999999-
             pm...............................

----------------
----------------
----------------
----------------
-16-16-12-12-5--
-14-14-10-10-3--

THE END

any corrections mail em to: septic_flesh241@hotmail.com

  Visit MetalTabs.com for more metal tablature

bottom separator

Contact Us | Privacy Policy | Disclaimer | Legal Notice
Copyright © 2001-2014 MetalTabs.com. All Rights Reserved.