top separator

Home

Forum

What's New

Submit a Tab

FAQ

Links

Contact Us

Link to Us

MetalTabs.com logo

Bands

0-9

A

B

C

D

E

F

G

H

I

J

K

L

M

N

O

P

Q

R

S

T

U

V

W

X

Y

Z

Search

What

Where
 

XXX Maniak - "Skeleton Toucher" Guitar Tab

Plain Text Version
More XXX Maniak Tabs

Hits: 2516
Rated: 3.00 out of 5 (1 vote)
Updated: 2005-12-11 04:31:37

 

By:

Robbie Filth

sendpm.gif

email.gif

Important note
This tab is available online because we obtained explicit permission from XXX Maniak or their label.


#----------------------------------PLEASE NOTE---------------------------------#
#This file is the author's own work and represents their interpretation of the #
#song. You may only use this file for private study, scholarship, or research. #
#Unless specified otherwise, this is NOT an official tab from the band members.#
#------------------------------------------------------------------------------#

  Visit MetalTabs.com for more metal tablature
  
Band: XXX Maniak
Album: Harvesting the Cunt Nectar
Song: Skeleton Toucher
Record Label: Red Candle Records
Tuning: A D G C E A

"random intro sample here"

---------------
---------------
---------------
---------------
---7---8---6---
---5---6---4---

----------------------------
----------------------------
----------------------------
----------------------------
-------------------------5--
-3-3-3-3-3-3-3-3-3-3-3-3-3--

"bass break"

-----------------------------------------------------
-----------------------------------------------------
-----------------------------------------------------
-----------------------------------------------------
-7-9\8-7-7-7--7-9\8-7-7-7--7-9\8-7-7-7--7-9\8-7-7-7--
-5-7\6-5-5-5--5-7\6-5-5-5--5-7\6-5-5-5--5-7\6-5-5-5--


-----------------------------------------------------
-----------------------------------------------------
-----------------------------------------------------
-----------------------------------------------------
-6-8\7-6-6-6--6-8\7-6-6-6--6-8\7-6-6-6--6-8\7-6-6-6--
-4-6\5-4-4-4--4-6\5-4-4-4--4-6\5-4-4-4--4-6\5-4-4-4--

THE END

I'm sure this is 100% great but any comments mail em to:
septic_flesh241@hotmail.com

  Visit MetalTabs.com for more metal tablature

bottom separator

Contact Us | Privacy Policy | Disclaimer | Legal Notice
Copyright © 2001-2014 MetalTabs.com. All Rights Reserved.