top separator

Home

Forum

What's New

Submit a Tab

FAQ

Links

Contact Us

Link to Us

MuSpy.com

MetalTabs.com logo

Bands

0-9

A

B

C

D

E

F

G

H

I

J

K

L

M

N

O

P

Q

R

S

T

U

V

W

X

Y

Z

Search

What

Where
 

Burzum - "Hermodr a Helferd" Guitar Tab

Plain Text Version
More Burzum Tabs

Hits: 5541
Rated: 2.83 out of 5 (6 votes)
Updated: 2005-12-11 04:31:24

 

By:

sendpm.gif

email.gif

Important note
This tab is available online because we obtained explicit permission from Burzum or their label.


#----------------------------------PLEASE NOTE---------------------------------#
#This file is the author's own work and represents their interpretation of the #
#song. You may only use this file for private study, scholarship, or research. #
#Unless specified otherwise, this is NOT an official tab from the band members.#
#------------------------------------------------------------------------------#

  Visit MetalTabs.com for more metal tablature
  
Band:  BURZUM
Album: Daudi Baldr
Song:  Hermodr a Helferd

Copyright (c)  Mysantropic 1997
Version 1.0 - 1997

Transcribed By: Necrologistis XIV
Email:          vatalan@hotmail.com


.  - palm mute           /  - slide up to
\  - slide down to       ~  - vibrato
h  - hammer on           b  - Bend
p  - pull off            Suffixes for bend
t  - tap                 f  - full bend    h - half bend
ph - pinched harmonic    q  - quarter bend t - tap bend
*  - see comment         ^  - Hold bend    r release bend
x  - Stuccatto           ~  - vibrato bend
,  - slight palm mute    () - ghost note, sustained note
"  - tremolo note        <> - Trill

Tuning Bb Eb Ab Db Gb Bb

Harp 1
|-------------------------------------------------------------------|
|-------------------------------------------------------------------|
|-------------------------------------------------------------------|
|---------10--------------------------------------------------------|
|--8--11------11--8-------------------------------------------------|
|-------------------------------------------------------------------|
(Play 8 times befor the second Harp comes up)

Harp2
|-------------------------------------------------------------------|
|-------------------------------------------------------------------|
|-------------------------------------------------------------------|
|------------------10-------------------------13--10----------------|
|--8--11--8-----8------11------8--11--8----8------------------------|
|-------------------------------------------------------------------|
Play 2 times this.


And so On ...

So easy isn't it =) ?

  Visit MetalTabs.com for more metal tablature

bottom separator

Contact Us | Privacy Policy | Disclaimer | Legal Notice
Copyright © 2001-2014 MetalTabs.com. All Rights Reserved.