top separator

Home

Forum

What's New

Submit a Tab

FAQ

Links

Contact Us

Link to Us

MetalTabs.com logo

Bands

0-9

A

B

C

D

E

F

G

H

I

J

K

L

M

N

O

P

Q

R

S

T

U

V

W

X

Y

Z

Search

What

Where
 

Suffocation - "Devoid Of Truth" Guitar Tab

Plain Text Version
More Suffocation Tabs

Hits: 4249
Rated: 5.00 out of 5 (2 votes)
Updated: 2005-12-30 01:23:11

 

By:

MetalThrashingMad

sendpm.gif

email.gif

Co-authored by:

PUngency

sendpm.gif

email.gif

Important note
This tab is available online because we obtained explicit permission from Suffocation or their label.


#----------------------------------PLEASE NOTE---------------------------------#
#This file is the author's own work and represents their interpretation of the #
#song. You may only use this file for private study, scholarship, or research. #
#Unless specified otherwise, this is NOT an official tab from the band members.#
#------------------------------------------------------------------------------#

  Visit MetalTabs.com for more metal tablature
  
DEVOID OF TRUTH
                           As recorded by Suffocation
                       (From the 1998 EP DESPISE THE SUN)
                          Copyright (c) 1998 Vulture
                           Reissue - Relapse  2002


Arranged by Suffocation

Version - 1.1 - December 29, 2005

Transcribed by Steve Rubaszek (Thrasher502@hotmail.com),
corrections made by - Kolit Asdo (kasd7782@yahoo.com)


Gtr I (C# F# B E G# C#) - 'Terrence Hobbs'
Gtr II (C# F# B E G# C#) - 'Doug Cerrito'


 Drum Intro
  Death Metal Q=205
 4/4
  Gtrs I, II
|-----|
|-----|
|-----|
|-----|
|-----|
|-----|


  PM--------------------------------------------------|
|-------------------------|-----------------------------|
|-------------------------|-----------------------------|
|-------------------------|-----------------------------|
|-------------------------|-----------------------------|
|-3-3-3-3-3---3-3-3-3-3-3-|-3-3-3---3-3-3-3-4-4-4-4-4-4-|
|-1-1-------1---------1-1-|-------1---------2-2---------|


  PM--------------------------------------------------|
|-------------------------|-----------------------------|
|-------------------------|-----------------------------|
|-------------------------|-----------------------------|
|-------------------------|-----------------------------|
|-3-3-3-3-3---3-3-3-3-3-3-|-3-3-3---3-3-3-3-2-2-2-2-2-2-|
|-1-1-------1---------1-1-|-------1---------0-0---------|


  PM--------------------------------------------------|
|-------------------------|-----------------------------|
|-------------------------|-----------------------------|
|-------------------------|-----------------------------|
|-------------------------|-----------------------------|
|-3-3-3-3-3---3-3-3-3-3-3-|-3-3-3---3-3-3-3-4-4-4-4-4-4-|
|-1-1-------1---------1-1-|-------1---------2-2---------|


                           5/4
  PM--------------------------------------------|
|-------------------------|--------------------------||
|-------------------------|--------------------------||
|-------------------------|--------------------------||
|-------------------------|---------------------4----||
|-3-3-3-3-3---3-3-3-3-3-3-|-3-3-3---3-3-3---2-2-2----||
|-1-1-------1---------1-1-|-------1-------1-0-0------||


 Pre-Chorus
 4/4
  PM--------------------------------------------------------------|
|---------------------------------|---------------------------------|
|---------------------------------|---------------------------------|
|---------------------------------|---------------------------------|
|---------------------------------|---------------------------------|
|---------3-3-3---3-3-3-----------|-3-3-3---3-3-3-----------4-4-4-4-|
|-1-1-1-1-------1-------1-1-1-1-1-|-------1-------2-2-2-2-2---------|


  PM--------------------------------------------------------------|
|---------------------------------|---------------------------------|
|---------------------------------|---------------------------------|
|---------------------------------|---------------------------------|
|---------------------------------|---------------------------------|
|---------3-3-3---3-3-3-----------|-3-3-3---3-3-3-----------2-2-2-2-|
|-1-1-1-1-------1-------1-1-1-1-1-|-------1-------0-0-0-0-0---------|


  PM--------------------------------------------------------------|
|---------------------------------|---------------------------------|
|---------------------------------|---------------------------------|
|---------------------------------|---------------------------------|
|---------------------------------|---------------------------------|
|---------3-3-3---3-3-3-----------|-3-3-3---3-3-3-----------4-4-4-4-|
|-1-1-1-1-------1-------1-1-1-1-1-|-------1-------2-2-2-2-2---------|


  PM----------------------------------------------|
|---------------------------------|-----------------||
|---------------------------------|-----------------||
|---------------------------------|-----------------||
|---------------------------------|---------5-4-----||
|---------3-3-3---3-3-3-----------|-6-5-4-3-3-2-6-5-||
|-1-1-1-1-------1-------1-1-1-1-1-|-4-3-2-1-----4-3-||


  PM--------------------------------------------------------------|
|---------------------------------|---------------------------------|
|---------------------------------|---------------------------------|
|---------------------------------|---------------------------------|
|---------------------------------|---------------------------------|
|---------3-3-3-3-3-3-----3-3-3-3-|-3-3-----3-3-----4-4-4-4-4-4-4-4-|
|-1-1-1-1-------------1-1---------|-----1-1-----2-2-----------------|


  PM--------------------------------------------------------------|
|---------------------------------|---------------------------------|
|---------------------------------|---------------------------------|
|---------------------------------|---------------------------------|
|---------------------------------|---------------------------------|
|---------3-3-3-3-3-3-----3-3-3-3-|-3-3-----3-3-----2-2-2-2-2-2-2-2-|
|-1-1-1-1-------------1-1---------|-----1-1-----0-0-----------------|


  PM--------------------------------------------------------------|
|---------------------------------|---------------------------------|
|---------------------------------|---------------------------------|
|---------------------------------|---------------------------------|
|---------------------------------|---------------------------------|
|---------3-3-3-3-3-3-----3-3-3-3-|-3-3-----3-3-----4-4-4-4-4-4-4-4-|
|-1-1-1-1-------------1-1---------|-----1-1-----2-2-----------------|


  PM--------------------------------------------------|
|---------------------------------|---------------------||
|---------------------------------|---------------------||
|---------------------------------|---------------------||
|---------------------------------|---------------------||
|---------3-3-3-3-3-3-----3-3-3-3-|---------------------||
|-1-1-1-1-------------1-1---------|-0-0-0-0-0-0-0-0-0-0-||


 Chorus
 4/4
  PM--------------------------------------------------|
|-------------------------|-----------------------------|
|-------------------------|-----------------------------|
|-------------------------|-----------------------------|
|-------------------------|-----------------------------|
|-3-3-3-3-3---3-3-3-3-3-3-|-3-3-3---3-3-3-3-4-4-4-4-4-4-|
|-1-1-------1---------1-1-|-------1---------2-2---------|


  PM--------------------------------------------------|
|-------------------------|-----------------------------|
|-------------------------|-----------------------------|
|-------------------------|-----------------------------|
|-------------------------|-----------------------------|
|-3-3-3-3-3---3-3-3-3-3-3-|-3-3-3---3-3-3-3-2-2-2-2-2-2-|
|-1-1-------1---------1-1-|-------1---------0-0---------|


  PM--------------------------------------------------|
|-------------------------|-----------------------------|
|-------------------------|-----------------------------|
|-------------------------|-----------------------------|
|-------------------------|-----------------------------|
|-3-3-3-3-3---3-3-3-3-3-3-|-3-3-3---3-3-3-3-4-4-4-4-4-4-|
|-1-1-------1---------1-1-|-------1---------2-2---------|


  PM--------------------------------------|
|-------------------------|-----------------||
|-------------------------|-----------------||
|-------------------------|-----------------||
|-------------------------|---------5-4-----||
|-3-3-3-3-3---3-3-3-3-3-3-|-6-5-4-3-3-2-6-5-||
|-1-1-------1---------1-1-|-4-3-2-1-----4-3-||


 Verse
 5/4
  Gtr I
  PM------------------------------------------------------------|
|---------------------|---------------------|---------------------|
|---------------------|---------------------|---------------------|
|---------------------|---------------------|---------------------|
|---------------------|-------6-------------|-------------6-------|
|-3-------5-------7-3-|-3-4-3-4-3-4-3-4-6-7-|-3-4-3-4-3-4-4-4-3-4-|
|-1-------3-------5-1-|-1-2-1---1-2-1-2-4-5-|-1-2-1-2-1-2---2-1-2-|
|
| Gtr II
| PM------------------------------------------------------------|
|---------------------|---------------------|---------------------|
|---------------------|---------------------|---------------------|
|---------------------|---------------------|---------------------|
|---------------------|-------6-------------|-------------6-------|
|-2-3-2-3-2-3-2-3-2-3-|-3-4-3-4-3-4-3-4-6-7-|-3-4-3-4-3-4-4-4-3-4-|
|-0-1-0-1-0-1-0-1-0-1-|-1-2-1---1-2-1-2-4-5-|-1-2-1-2-1-2---2-1-2-|


    Gtrs I, II
    PM--------------------------------------|
                                               3x
||----------------------|----------------------||
||o---------------------|---------------------o||
||----------------------|----------------------||
||----------------------|----------------------||
||o-3-4-3-4-6-4-3-4-6-7-|-3-4-3-4-6-4-3-4-6-7-o||
||--1-2-1-2-4-2-1-2-4-5-|-1-2-1-2-4-2-1-2-4-5--||


   Chorus
    PM--------------------------------------|
||----------------------|----------------------||
||o---------------------|---------------------o||
||----------------------|----------------------||
||----------5-------5-6-|---------5-------5-6--||
||o-3-4-3-4-3-4-3-4-3-4-|-3-4-3-4-3-4-3-4-3-4-o||
||--1-2-1-2---2-1-2-----|-1-2-1-2---2-1-2------||


  PM--------------------------------------|
|---------------------|---------------------|
|---------------------|---------------------|
|---------------------|---------------------|
|---------7-------7-8-|---------7-------7-8-|
|-5-6-5-6-5-6-5-6-5-6-|-5-6-5-6-5-6-5-6-5-6-|
|-3-4-3-4---4-3-4-----|-3-4-3-4---4-3-4-----|


  PM----------------------------|    PM|
|---------------------|------------------|
|---------------------|------------------|
|---------------------|------------------|
|---------5-------5-6-|---------5----5-6-|
|-3-4-3-4-3-4-3-4-3-4-|-3-4-3-4-3----3-4-|
|-1-2-1-2---2-1-2-----|-1-2-1-2----------|


   Verse
    PM--------------------------------------|
                                               4x
||----------------------|----------------------||
||o---------------------|---------------------o||
||----------------------|----------------------||
||----------------------|----------------------||
||o-3-4-3-4-6-4-3-4-6-7-|-3-4-3-4-6-4-3-4-6-7-o||
||--1-2-1-2-4-2-1-2-4-5-|-1-2-1-2-4-2-1-2-4-5--||


   Chorus
    PM--------------------------------------|
||----------------------|----------------------||
||o---------------------|---------------------o||
||----------------------|----------------------||
||----------5-------5-6-|---------5-------5-6--||
||o-3-4-3-4-3-4-3-4-3-4-|-3-4-3-4-3-4-3-4-3-4-o||
||--1-2-1-2---2-1-2-----|-1-2-1-2---2-1-2------||


                                             7/4
  PM--------------------------------------------------------------------|
|---------------------|---------------------|------------------------------|
|---------------------|---------------------|------------------------------|
|---------------------|---------------------|------------------------------|
|---------7-------7-8-|---------7-------7-8-|---------5-------5-6----------|
|-5-6-5-6-5-6-5-6-5-6-|-5-6-5-6-5-6-5-6-5-6-|-3-4-3-4-3-4-3-4-3-4-3-4-3-4--|
|-3-4-3-4---4-3-4-----|-3-4-3-4---4-3-4-----|-1-2-1-2---2-1-2-----1-2-1-2--|


 Breakdown
 6/4
  Gtr I
|-------------------------|-------------------------|
|-------------------------|-------------------------|
|-------------------------|-------------------------|
|-3h4-2h4-3h5-3h4-2h4-3h5-|-3h4-2h4-3h5-3h4-2h4-3h5-|
|-3h4-2h4-3h5-3h4-2h4-3h5-|-3h4-2h4-3h5-3h4-2h4-3h5-|
|-------------------------|-------------------------|
|
| Gtr II
|-------------------------|-------------------------|
|-------------------------|-------------------------|
|-------------------------|-------------------------|
|-5-----------5-----------|-5-----------3h4-2h4-3h5-|
|-3-----------3-----------|-3-----------3h4-2h4-3h5-|
|-------------------------|-------------------------|


|-------------------------|-----------------------|
|-------------------------|-----------------------|
|-------------------------|-----------------------|
|-3h4-2h4-3h5-3h4-2h4-3h5-|----5-6-4-7----5-6-4-7-|
|-3h4-2h4-3h5-3h4-2h4-3h5-|-4--3-4-2-5-4--3-4-2-5-|
|-------------------------|-2----------2----------|
|
|-------------------------|-----------------------|
|-------------------------|-----------------------|
|-------------------------|-----------------------|
|-3h4-2h4-3h5-5-----------|----5-6-4-7----5-6-4-7-|
|-3h4-2h4-3h5-3-----------|-4--3-4-2-5-4--3-4-2-5-|
|-------------------------|-2----------2----------|


  Gtrs I, II
|-------------------------|-------------------------|
|-------------------------|-------------------------|
|-------------------------|-------------------------|
|-3h4S2h4p3h5-3h4S2h4p3h5-|-3h4S2h4p3h5-3h4p3h5p3S2-|
|-3h4S2h4p3h5-3h4S2h4p3h5-|-3h4S2h4p3h5-3h4p3h5p3S2-|
|-------------------------|-------------------------|


                               PM----|    PM----|
|-------------------------|-----------------------|
|-------------------------|-----------------------|
|-------------------------|-----------------------|
|-3h4S2h4p3h5-3h4S2h4p3h5-|-----------------------|
|-3h4S2h4p3h5-3h4S2h4p3h5-|-5--4-5-4-6-5--4-5-4-6-|
|-------------------------|-3--2-3-2-4-3--2-3-2-4-|


|-------------------------|-------------------------|
|-------------------------|-------------------------|
|-------------------------|-------------------------|
|-3h4S2h4p3h5-3h4S2h4p3h5-|-3h4S2h4p3h5-3h4p3h5p3S2-|
|-3h4S2h4p3h5-3h4S2h4p3h5-|-3h4S2h4p3h5-3h4p3h5p3S2-|
|-------------------------|-------------------------|


                                                   3/4
                               PM----|    PM----|      PM----|
|-------------------------|-----------------------|------------|
|-------------------------|-----------------------|------------|
|-------------------------|-----------------------|------------|
|-3h4S2h4p3h5-3h4S2h4p3h5-|-----------------------|------------|
|-3h4S2h4p3h5-3h4S2h4p3h5-|-5--4-5-4-6-5--4-5-4-6-|-5--4-5-4-6-|
|-------------------------|-3--2-3-2-4-3--2-3-2-4-|-3--2-3-2-4-|


 6/4                                                 3/4
  Gtr I
|-------------------------|-------------------------|-------------|
|-------------------------|-------------------------|-------------|
|-------------------------|-------------------------|-------------|
|-3h4S2h4p3h5-3h4S2h4p3h5-|-3h4S2h4p3h5-3h4p3h5p3S2-|-3h4-2h4-3h5-|
|-3h4S2h4p3h5-3h4S2h4p3h5-|-3h4S2h4p3h5-3h4p3h5p3S2-|-3h4-2h4-3h5-|
|-------------------------|-------------------------|-------------|
|
| Gtr II
|-------------------------|-------------------------|-------------|
|-------------------------|-------------------------|-------------|
|-------------------------|-------------------------|-------------|
|-3h4S2h4p3h5-3h4S2h4p3h5-|-3h4S2h4p3h5-3h4p3h5p3S2-|-------------|
|-3h4S2h4p3h5-3h4S2h4p3h5-|-3h4S2h4p3h5-3h4p3h5p3S2-|-------------|
|-------------------------|-------------------------|-------------|


 Outro
 6/4
  Gtrs I, II
  PM--------------------------------------|
|-------------------------|-------------------------|
|-------------------------|-------------------------|
|-------------------------|-------------------------|
|-------------------------|-------------------3-2---|
|-2-4-3-5-4-7-2-4-4-5-3-7-|-2-4-3-5-4-7-2-4-3-----2-|
|-0-2-1-3-2-5-0-2-2-3-1-5-|-0-2-1-3-2-5-0-2---------|


  PM----------------------------------------------|
|-------------------------|-------------------------|
|-------------------------|-------------------------|
|-------------------------|-------------------------|
|-------------------------|-------------------------|
|-2-4-3-5-4-7-2-4-4-5-3-7-|-2-4-3-5-4-7-2-4-3-5-4-7-|
|-0-2-1-3-2-5-0-2-2-3-1-5-|-0-2-1-3-2-5-0-2-1-3-2-5-|


||------------------------|-----------------------|
||o-----------------------|-----------------------|
||------------------------|-----------------------|
||--3--3S4S3S1-3--3S4S3S1-|-3--3S4S3S1-3----3-2---|
||o-3--3S4S3S1-3--3S4S3S1-|-3--3S4S3S1-3--3-----2-|
||------------------------|-----------------------|


  PM----------------------------------------------|
|-------------------------|--------------------------||
|-------------------------|-------------------------o||
|-------------------------|--------------------------||
|-------------------------|--------------------------||
|-2-4-3-5-4-7-2-4-4-5-3-7-|-2-4-3-5-4-7-2-4-4-5-3-7-o||
|-0-2-1-3-2-5-0-2-2-3-1-5-|-0-2-1-3-2-5-0-2-2-3-1-5--||


|-----------------------|-----------------------*|
|-----------------------|-----------------------*|
|-----------------------|-----------------------*|
|-3--3S4S3S1-3--3S4S3S1-|-3--3S4S3S1-3----3-2---*|
|-3--3S4S3S1-3--3S4S3S1-|-3--3S4S3S1-3--3-----2-*|
|-----------------------|-----------------------*|


Tablature Legend
----------------
 h   - hammer-on
 p   - pull-off
 b   - bend
 pb  - pre-bend
 r   - bend release (if no number after the r, then release immediately)
 /  - slide into or out of (from/to "nowhere")
 s   - legato slide
 S   - shift slide
<n>  - natural harmonic
[n]  - artificial harmonic
n(n) - tapped harmonic
 ~   - vibrato
 tr  - trill
 T   - tap
 TP  - trem. picking
 PM  - palm muting
n/  - tremolo bar dip; n = amount to dip
 n  - tremolo bar down
 n/  - tremolo bar up
/n  - tremolo bar inverted dip
 =   - hold bend; also acts as connecting device for hammers/pulls
 <>  - volume swell (louder/softer)
 x   - on rhythm slash represents muted slash
 o   - on rhythm slash represents single note slash

Misc Legend
-----------
 |  - bar
||  - double bar
||o - repeat start
o|| - repeat end
*|  - double bar (ending)
 :  - bar (freetime)
 $  - Segno
 &  - Coda
Tempo markers - <E/E./Q/Q./H/H.> = BPM(8/16=s8/s16), where s8 = swing 8ths,
s16 = swing 16ths

  Visit MetalTabs.com for more metal tablature

bottom separator

Contact Us | Privacy Policy | Disclaimer | Legal Notice
Copyright © 2001-2014 MetalTabs.com. All Rights Reserved.