top separator

Home

Forum

FAQ

Contact Us

Link to Us

MetalTabs.com logo

Bands

0-9

A

B

C

D

E

F

G

H

I

J

K

L

M

N

O

P

Q

R

S

T

U

V

W

X

Y

Z

Gorgoroth - "Forces Of Satan Storms" Guitar Tab

Plain Text Version
More Gorgoroth Tabs

Hits: 3916
Rated: 4.60 out of 5 (5 votes)
Updated: 2005-12-11 04:24:06

By:


#----------------------------------PLEASE NOTE---------------------------------#
#This file is the author's own work and represents their interpretation of the #
#song. You may only use this file for private study, scholarship, or research. #
#Unless specified otherwise, this is NOT an official tab from the band members.#
#------------------------------------------------------------------------------#

  Visit MetalTabs.com for more metal tablature
  
Band: Gorgoroth
Album: Twilight of The Idols
Song: Forces of Satan Storms

Copyright (c) Nuclear Blast 2003
Version 1.0 07.12.2005

Transcribed By: Defest
Email: danielfos@hotmail.com

Tuning: D G C F A D

Riff 1
|------------------------------------|
|------------------------------------|
|------------------------------------|
|--------------------------------222-|
|-2-3-6-5-2-3----222---111-333-------|
|-0-1-4-3-0-1-444---333-------000----|


Riff 2
|---------------------------------------------------|
|---------------------------------------------------|
|---------------------------------------------------|
|---------------------------------------------------|
|-2-222-10-101010-9-999-7-777-5-555-5-555-9-999-9-999-2-|
|-0-000-8ó-8-8-8--7-777-5-555-3-333-3-333-7-777-7-777-0-|
  . ... .  . . .  . ... . ... . ... . ... . ... . ... x


Riff 3   I know the light parts are wrong, but itís the best I found
|---------------------------------------------|
|------------------------------5----------3---|
|-------------------------------4----------2--|
|--------------------------------2----------0-|
|---------------------------------------------|
|-0-000-3-2-1-0-000-3-2-1-0-000------0-000----|
  . ... . . . . ... . . . . ...      . ...
|-------------------------------------------------|
|-------------------------------------------------|
|-------------------------------------------------|
|-------------------------------------------------|
|-------------------------6-666-6-666-5-555-3-333-|
|-0-000-3-2-1-0-000-3-2-1-4-444-4-444-3-333-1-111-|
  . ... . . . . ... . . . . ... . ... . ... . ...




Riff 4
|---0-------0---------0------|
|----0-------0---------0-----|
|-----0-------0---------0----|
|----------------------------|
|-2-----3-2-----3-5-2-----6-5|
|-0-----1-0-----1-3-0-----4-3|


Riff 5
|----------------------|---------------------------|
|----------------------|---------------------------|
|----------------------|---------------------------|
|----------------------|----------------10-9-------|
|-2/10-9---5---10b-3-3-|-2/10-9---5-/6-------5-6-3-|
|-0------7---4-----1-1-|-0------7------------3-4-1-|
					     x x x

Riff 6
|---------------|
|---------------|
|-----------AH--|
|---3-----3-12b-|
|-2-1-5-2-1-----|
|-0---3-0-------|


Riff 7
|---------------|------------------|
|---------------|------------------|
|---------------|------------------|
|---5---7---5-8-|---5---7---5-8-5--|
|-2-3-2-5-2-3-6-|-2-3-2-5-2-3-6-3--|
|-0---0---0-----|-0---0---0--------|


END
|---|
|---|
|---|
|-2-|
|-2-|
|-0-|
  x

  Visit MetalTabs.com for more metal tablature

bottom separator

Contact Us | Privacy Policy | Disclaimer
Copyright © 2001-2014 MetalTabs.com. All Rights Reserved.