#----------------------------------PLEASE NOTE---------------------------------#
#This file is the author's own work and represents their interpretation of the #
#song. You may only use this file for private study, scholarship, or research. #
#Unless specified otherwise, this is NOT an official tab from the band members.#
#------------------------------------------------------------------------------#

  Visit MetalTabs.com for more metal tablature
  
Band: Blood Red Throne
Album: A Taste For Blood
Song: Ravenous War Machine
Record Label: HammerHeart Records
Tuning: C F A# D# G C

after about a 40 second intro it goes:

----------------
----------------
-5h6------------
-----5h6--------
---------3h4-8--
-------------6--

--------------------------------------------
--------------------------------------------
-------------5-4----------------------------
-----5---3-------3-6-------5---3---3-5-6-5--
-4-3---4---4-----1-4-1-4-3---4---4-1-3-4-3--
--------------------------------------------
 trem...........     ............. pm. . .

----------------------------------------------
----------------------------------------------
---------------5-4----------------------------
-------5---3-------3-6-------5---3---3-5-6-5--
-1-4-3---4---4-----1-4-1-4-3---4---4-1-3-4-3--
----------------------------------------------X3
 trem.............     ............. pm. . .


-------------------------------------------
-------------------------------------------
-------------------------------------------
-------------------------------------------
-------------------------------------------
-7-6-5-8-7-6--765-6-7-6-5-765-765-6-7-6-5--X4
 pm. . . . .  ... . . . . ... ...
only once    

-------------------------------
-------------------------------
-------------------------------
-------------------------------
-------------------------------
--7-6-5-8-7-6-7-6-7-6-5-8-7-6--X4
 pm . . . . . . . . . . . . .

---------------------
---------------------
---------------------
-------8-------------
---7-------7---10-7--
-3---6---3---6-------X4
 trem...............

-----------------------------------
-----------------------------------
-----------------------------------
-5-------5-------5-------6---------
---5-5-5---5-5-5---5-5-5---55-5-5--
---3-3-3---3-3-3---3-3-3---33-3-3--X6
   pm. .   . . .   . . .   .. . .

----------------------------------
----------------------------------
-------------------0---0----------
-----------0---0-4---4------------
---0---0-4---4--------------------
-4---4-------------------333-333--X8
 pm. . . . . . . . . . . ... ...

------------------------------------------------------------------------
------------------------------------------------------------------------
---8-7-----9-8---8-7-----9-8----11-10-------13-12----11-10-------13-12--
-7-----8-7-----7-----8-7-----10-------11-10-------10-------11-10--------
------------------------------------------------------------------------
------------------------------------------------------------------------X4
pm     . .     .     . .     ..       .. ..       ..       .. ..

--------------------------------
--------------------------------
-----------------------------7--
-653-532-653-532-653-532-653-5--
--------------------------------
--------------------------------X5

--------------------------------------------
--------------------------------------------
--------------------------------------------
-6-5-3-543-6-5-3-543-6-5-3-543--------------
--------------------------------------------
-------------------------------4-5-4-5-6-5--X3
 pm. . ... . . . ... . . . ... . . . . . .

-------------------------------------------------------
-------------------------------------------------------
-------------------------------------------------------
-6-5-3-543-6-5-3-543-6-5-3-543-------------------------
-------------------------------------------------------
-------------------------------3-4-3-4-5-4-5-6-5-6-777-
 pm. . ... . . . ... . . . ... . . . . . . . . . . ...

--------------------------
--------------------------
--------------------------
--------------------------
--------------------------
-3-4-3-4-5-4-5-6-5-6-777--X8
pm . . . . . . . . . ...

--------------------------
--------------------------
--------------------------
--------------------------
---2---4---5---2---4-232--
-5---6---7---5---6--------X4
 pm. . . . . . . . . ...

----------------------------------------
----------------------------------------
----------------------------------------
------------------1---------------------
----------2-1-4-3------------2-1-4-3-4--
-333333-3-----------333333-3------------X4
 pm.... . . . . . . ...... . . . . . .

-------------------------------------3*trill*4------------
-----------------------------------------------3*trill*4--
----------------------------------------------------------
-5-----------3-----6-----5--------------------------------
----------------------------------------------------------
---333-3-3-3---333---333---333-3-3-3----------------------
   pm. . . .   ...   ...   ... . . .

--------------------------------------------------
--------------------------------------------------
--------------------------------------------------
-5-----------3-----6-----5------------------------
-------------------------------------3-2-0--------
---333-3-3-3---333---333---333-3-3-3-------6-5-3--X2 carrying on from above.
   ... . . .   ...   ...   ... . . . . . . . . .

-----------------------------------------
-----------------------------------------
-----------------------------------------
-----------------------------------------
--------3-2-0--------------3-2-0---------
-333444-------6-5-3-555444--------6-5-3--
        pm. . . . .        . . . . . . .

-----------------------------
-----------------------------
-----------------------------
-----------------------------
--------3-2-0----------------
-333444-------6-5-3-555444---
        . . . . . .

-------------------------------------3*trill*4------------
-----------------------------------------------3*trill*4--
----------------------------------------------------------
-5-----------3-----6-----5--------------------------------
----------------------------------------------------------
---333-3-3-3---333---333---333-3-3-3----------------------
   pm. . . .   ...   ...   ... . . .

--------------------------------------------------
--------------------------------------------------
--------------------------------------------------
-5-----------3-----6-----5------------------------
-------------------------------------3-2-0--------
---333-3-3-3---333---333---333-3-3-3-------6-5-3--X2 carrying on from above.
   ... . . .   ...   ...   ... . . . . . . . . .

-----------------------------------------
-----------------------------------------
-----------------------------------------
-----------------------------------------
--------3-2-0--------------3-2-0---------
-333444-------6-5-3-555444--------6-5-3--
        pm. . . . .        . . . . . . .

---------------------------------------------------
---------------------------------------------------
---------------------------------------------------
---------------------------------------------------
--------3-2-0--------------3-2-0-------3-2-0-----8-
-333444-------6-5-3-555444-------6-5-3-------6-5-6-
        . . . . . .        . . . . . . . . . . .

----------------------------------------------
----------------------------------------------
---------------5-4----------------------------
-------5---3-------3-6-------5---3---3-5-6-5--
-1-4-3---4---4-----1-4-1-4-3---4---4-1-3-4-3--
----------------------------------------------X3
 trem.............     ............. pm. . .


-------------------------------------------
-------------------------------------------
-------------------------------------------
-------------------------------------------
-------------------------------------------
-7-6-5-8-7-6--765-6-7-6-5-765-765-6-7-6-5--X4
 pm. . . . .  ... . . . . ... ...
only once    

-------------------------------
-------------------------------
-------------------------------
-------------------------------
-------------------------------
--7-6-5-8-7-6-7-6-7-6-5-8-7-6--X4
 pm . . . . . . . . . . . . .

---------------------
---------------------
---------------------
-------8-------------
---7-------7---10-7--
-3---6---3---6-------X4
 trem...............

-----------------------------------
-----------------------------------
-----------------------------------
-5-------5-------5-------6---------
---5-5-5---5-5-5---5-5-5---55-5-5--
---3-3-3---3-3-3---3-3-3---33-3-3--X4
   pm. .   . . .   . . .   .. . .

--------------------------------------
--------------------------------------
--------------------------------------
-5---6---3---5---6---3---5---5-6---3--
--------------------------------------
---3---3---3---3---3---3---3-----3----X3
  pm   .   .   .   .   .   .     .
--------------
--------------
--------------
-5---6---3----
--------------
---3---3---3--
   .   .   .

--------------------------
--------------------------
--------------------------
--------------------------
--------------------------
-3-4-3-4-5-4-5-6-5-6-777--X12
pm . . . . . . . . . ...

--------------------------
--------------------------
--------------------------
--------------------------
---2---4---5---2---4-232--
-5---6---7---5---6--------X4
 pm. . . . . . . . . ...

-----------------------------------------
-----------------------------------------
-----------------------------------------
-----------------------------------------
--------3-2-0--------------3-2-0---------
-333444-------6-5-3-555444--------6-5-3--
        pm. . . . .        . . . . . . .

----------------------------------------------------
----------------------------------------------------
-------------------------------------------------9--
-------------------------------------------------8--
--------3-2-0--------------3-2-0-------3-2-0-----7--
-333444-------6-5-3-555444-------6-5-3-------6-5----
        . . . . . .        . . . . . . . . . . . let ring

THE END

any correction or anyhting mail em to:
septic_flesh241@Hotmail.com

  Visit MetalTabs.com for more metal tablature