top separator

Home

Forum

What's New

Submit a Tab

FAQ

Links

Contact Us

Link to Us

MuSpy.com

MetalTabs.com logo

Bands

0-9

A

B

C

D

E

F

G

H

I

J

K

L

M

N

O

P

Q

R

S

T

U

V

W

X

Y

Z

Search

What

Where
 

Ebonylake - "A Voice In The Piano" Guitar Tab

Plain Text Version
More Ebonylake Tabs

Hits: 1942
Updated: 2005-12-11 04:23:20

 

By:

Tjaial

sendpm.gif

email.gif

Important note
We did our best to reach Ebonylake and ask for their permission to publish this tab. Unfortunately they did not respond to our requests or we could not find a way to contact them. This tab is available online until Ebonylake tells us to take it down.


#----------------------------------PLEASE NOTE---------------------------------#
#This file is the author's own work and represents their interpretation of the #
#song. You may only use this file for private study, scholarship, or research. #
#Unless specified otherwise, this is NOT an official tab from the band members.#
#------------------------------------------------------------------------------#

  Visit MetalTabs.com for more metal tablature
  
Band:  EbonyLake
Album: On The Eve Of The Grimly Inventive
Song:  A Voice In The Piano
Version 1.0 -   06-12-05
Transcribed By: Tjaial
Email:          Tjaial@aol.com
Copyright (c)   Cacophonous

.  - palm mute           /  - slide up to
\  - slide down to       ~  - vibrato
h  - hammer on           b  - Bend
p  - pull off            Suffixes for bend
t  - tap                 f  - full bend    h - half bend
ph - pinched harmonic    q  - quarter bend t - tap bend
*  - see comment         ^  - Hold bend    r release bend
x  - Stuccatto           ~  - vibrato bend
,  - slight palm mute    () - ghost note, sustained note
"  - tremolo note        <> - Trill

Tune to Eb

listen to the song for timing

Intro (00:58)
|----------------|
|----------------|
|----------------|
|----------------|
|-8--8-7--7-4-3--|
|-6--6-5--5-2----|

Riff 1 (01:48)
|-----------------------------------------------------------------|------|
|-----------------------------------------------------------------|------|
|-----------------------------------------------------------------|------|
|-----------------------------8-----8-9----8-5-7------------------|------|
|-5--5-7-8-6-8-10-7-8-7h8p7-5--------------------5------3-----3-2-|-1-3--|
|-------------------------------9-8-----9-8--------6\-3---6-5-1-0-|------|
                                . .     . .                           .

Riff 2 (02:56)
|-----------------------------|
|-----------------------------|
|-----------------------------|
|-------3--3---------3-3-3-3--|
|-2-----2--2---2-----2-2-2-2--|
|-0-110-1--1---0-110-1-1-1-1--|
    ...          ...

Riff 3 (03:37)
|---------------------------------------------------------------|
|---------------------------------------------------------------|
|---------------------------------------------------------------|
|---------------------------------------------------------------|
|-2-4------4-5-----5-4h5p4--2-4-----4-5-----5-7-4h5p4-3-h4p3-2--|
|-----6-5------6-5--------------6-5-----6-5---------------------|
      . .    . . .              . .   . . .
|--------------------------------------------------|
|--------------------------------------------------|
|--------------------------------------------------|
|---------------------------------------------6----|
|-2-4------4-5-----5-4h5p4--2-4-----4-5-----5-4----|
|-----6-5------6-5--------------6-5-----6-5-----6--|
      . .    . . .              . .   . . .

Riff 1 (04:00)
Riff 2 (04:32)
End Riff 2 with: this time
|----------------|
|----------------|
|----------------|
|----------------|
|-2-----3-3-3-2--|
|-0-110-1-1-1-0--|
    ...

Riff 4 (06:15)
|-----------------------------------------|
|-----------------------------------------|
|-----------------------------------------|
|-------2"/4"/b5"r\--------2"/4"/5"b4"r\--|
|-3-4-2-------------3-4-2-----------------|
|-1-2-0-------------1-2-0-----------------|
  . .               . .

Riff 5 (06:55)
|--------------------------------------------------------------|
|--------------------------------------------------------------|
|--------------------------------------------------------------|
|-5-----4-----5-----5-----4-----5-----4-----5-----5-----4------|x2
|---4-3---4-3---4-3---4-3---4-3---4-3---4-3---4-3---4-3---4-3--|
|--------------------------------------------------------------|
    . .   . .   . .   . .   . .   . .   . .   . .   . .   . .

Riff 6 (07:08) Guitar 1
|--------------------------|--------------------------------------|
|--------------------------|--------------------------------------|
|-5------------------------|-5"-----------------------------------|
|---5-6-4-5-5-7-8-4h5p4-4--|----5"-6"-4"-5"-5"-7"-8"-4"h5"p4"-4"--|
|--------------------------|--------------------------------------|
|--------------------------|--------------------------------------|
    . . .   . . .
Guitar 2 in time with the second part that Guitar 1 plays
|-----------------------------------------|
|-----------------------------------------|
|-----------------------------------------|
|-----------------------------------------|
|-3"--------------------------------------|
|----3"-4"-2"-3"-3"-5"-6"-2"h3"p2"-3"-6"--|
  .  .  .  .  .  .  .  .  .  .  .  .  .
End Riff 6 with (Guitar 2)
|--------|
|--------|
|--------|
|--------|
|-/8-----|
|-/6-----|

Riff 7 (08:10)
|--------------------------------------------------------------|
|--------------------------------------------------------------|
|--------------------------------------------------------------|
|--------------------------------------------------------------|
|-3444-3-4444545-5-4444554-3-4443414-5-5444345-3-5454454-5-----|
|-1222-1-2222323-3-2222332-1-2221232-3-3222123-1-3232232-3...--|
  ....   .......   .......   .......   .......   .......
End with
|--------|
|--------|
|--------|
|--------|
|-2-3-3--|
|-0-1-1--|

For the last Riff i dont think it matters what order you
play the three different palm muted chords in (its not perfect
up there) just give it a bit of variation and alternate between
the F# and E notes after each muted part.

END

  Visit MetalTabs.com for more metal tablature

bottom separator

Contact Us | Privacy Policy | Disclaimer | Legal Notice
Copyright © 2001-2014 MetalTabs.com. All Rights Reserved.