top separator

Home

Forum

What's New

Submit a Tab

FAQ

Links

Contact Us

Link to Us

MuSpy.com

MetalTabs.com logo

Bands

0-9

A

B

C

D

E

F

G

H

I

J

K

L

M

N

O

P

Q

R

S

T

U

V

W

X

Y

Z

Search

What

Where
 

Celtic Frost - "Procreation (of the Wicked)" Guitar Tab

Plain Text Version
More Celtic Frost Tabs

Hits: 8595
Rated: 2.67 out of 5 (6 votes)
Updated: 2005-12-11 04:13:33

 

By:

graduallymelted

sendpm.gif

email.gif

Important note
This tab is available online because we obtained explicit permission from Celtic Frost or their label.


#----------------------------------PLEASE NOTE---------------------------------#
#This file is the author's own work and represents their interpretation of the #
#song. You may only use this file for private study, scholarship, or research. #
#Unless specified otherwise, this is NOT an official tab from the band members.#
#------------------------------------------------------------------------------#

  Visit MetalTabs.com for more metal tablature
  
Band:  (CELTIC FROST)
Album: (MORBID TALES)
Song:  (PROCREATION (OF THE WICKED))

Copyright (c)  (SANCTUARY RECORDS) (1984)
Version 1.0 - (DATE)

Transcribed By: (ERIC DICKERSON)
Email:          (GRADUALLY MELTED@YAHOO.COM)


.  - palm mute           /  - slide up to
\  - slide down to       ~  - vibrato
h  - hammer on           b  - Bend
p  - pull off            Suffixes for bend
t  - tap                 f  - full bend    h - half bend
ph - pinched harmonic    q  - quarter bend t - tap bend
*  - see comment         ^  - Hold bend    r release bend
x  - Stuccatto           ~  - vibrato bend
,  - slight palm mute    () - ghost note, sustained note
"  - tremolo note        <> - Trill

Tuning E A D G B E
Listen to the song for riff order and timing.
|-------------------------------------------------------------------|
|-------------------------------------------------------------------|
|-------------------------------------------------------------------|
|-------------------------------------------------------------------|
|-8-9-2-2-6-5--7----------------------------------------------------|
|-6-7-0-0-4-3--5----------------------------------------------------|
      . .
|-------------------------------------------------------------------|
|-------------------------------------------------------------------|
|-------------------------------------------------------------------|
|-------------------------------------------------------------------|
|-----2-2-4-3--5----------------------------------------------------|
|-/6--0-0-2-1--3----------------------------------------------------|
      . .
|-------------------------------------------------------------------|
|-------------------------------------------------------------------|
|-------------------------------------------------------------------|
|-------------------------------------------------------------------|
|-2-2-2-2-2-2-7-8---------2-2-2-2-2-2-7-8------87\------------------|
|-0-0-0-0-0-0-5-6---------0-0-0-0-0-0-5-6------65\------------------|
  . . . . . .             . . . . . .
|-------------------------------------------------------------------|
|-------------------------------------------------------------------|
|-------------------------------------------------------------------|
|-------------------------------------------------------------------|
|-4-4-4-4-4-4-8-9--10-11--1110\-------------------------------------|
|-2-2-2-2-2-2-6-7--8--9---9-8-\-------------------------------------|
  . . . . . .
|-------------------------------------------------------------------|
|-------------------------------------------------------------------|
|-------------------------------------------------------------------|
|-------------------------------------------------------------------|
|-3-3-3-3-3-36--6\--------------------------------------------------|
|-1-1-1-1-1-14--4\--------------------------------------------------|
  . . . . . .
|-------------------------------------------------------------------|
|-------------------------------------------------------------------|
|-------------------------------------------------------------------|
|-------------------------------------------------------------------|
|-6-8--8-87---------------------------------------------------------|
|-4-6--6-65---------------------------------------------------------|


END.

  Visit MetalTabs.com for more metal tablature

bottom separator

Contact Us | Privacy Policy | Disclaimer | Legal Notice
Copyright © 2001-2014 MetalTabs.com. All Rights Reserved.