top separator

Home

Forum

What's New

Submit a Tab

FAQ

Links

Contact Us

Link to Us

MuSpy.com

MetalTabs.com logo

Bands

0-9

A

B

C

D

E

F

G

H

I

J

K

L

M

N

O

P

Q

R

S

T

U

V

W

X

Y

Z

Search

What

Where
 

Napalm Death - "Cure For The Common Complaint" Guitar Tab

Plain Text Version
More Napalm Death Tabs

Hits: 2927
Rated: 4.00 out of 5 (1 vote)
Updated: 2005-12-11 04:02:08

 

By:

sendpm.gif

email.gif

Important note
This tab is available online because we obtained explicit permission from Napalm Death or their label.


#----------------------------------PLEASE NOTE---------------------------------#
#This file is the author's own work and represents their interpretation of the #
#song. You may only use this file for private study, scholarship, or research. #
#Unless specified otherwise, this is NOT an official tab from the band members.#
#------------------------------------------------------------------------------#

  Visit MetalTabs.com for more metal tablature
  
Band:  Napalm Death
Album: Enemy of the Music Business
Song:  Cure For The Common Complaint

Copyright (c)  Dreamcatcher Records 2000
Version 1.0 - 11/26/05

Transcribed By: AZ11B
Email:


.  - palm mute           /  - slide up to
\  - slide down to       ~  - vibrato
h  - hammer on           b  - Bend
p  - pull off            Suffixes for bend
t  - tap                 f  - full bend    h - half bend
ph - pinched harmonic    q  - quarter bend t - tap bend
*  - see comment         ^  - Hold bend    r release bend
x  - Stuccatto           ~  - vibrato bend
,  - slight palm mute    () - ghost note, sustained note
"  - tremolo note        <> - Trill

Tuning D G C F A D

 Riff A
|-------------|
|-------------|
|-------------|
|-------------|
|-----5-----6-|
|-0-0-3-0-0-4-|
  . .   . .

 Riff B
|----------------------------------------------------------------|
|----------------------------------------------------------------|
|----------------------------------------------------------------|
|----------------------------------------------------------------|
|-----------------1h4-------------1h4-------------1h4---------6--|
|-0h3-0-0-0-0-0h3-----0-0-0-0-0h3-----0-0-0-0-0h3-----0-0-0-0-4--|

 Riff C                                                     1     2
|--------------------------------------------------------|-----|-----|
|--------------------------------------------------------|-----|-----|
|-----------------4/5-----------------------------4/5----|-----|-----|
|-----------------2/3-----------------------------2/3----|-----|-----|
|-5/6-----------------------------5-6--------------------|-3-6-|-6-3-|
|-3/4-0-0-0-0-3p0-----0-0-0-0-3p0-3/4-0-0-0-0-3p0----0-0-|-1-4-|-4-1-|
      . . . .         . . . .         . . . .        . .
 Riff D
|---------------------------------------|
|---------------------------------------|
|-----------------------------5\4-5-5-5-|
|----4/5---------5-4-----4/5--3\2-3-3-3-|
|-2--2/3--3-2-3--3-2--2--2/3------------|
|-0-------1-0-1-------0-----------------|

 Riff E                              Riff F
|----------------------------------|----------------------------------|
|----------------------------------|----------------------------------|
|----------------------------------|----------------------------------|
|-33----333344442233---------------|-55----555566664455---------------|
|----------------------------------|----------------------------------|
|---2222------------22222222222222-|---4444------------44444444444444-|


END

  Visit MetalTabs.com for more metal tablature

bottom separator

Contact Us | Privacy Policy | Disclaimer | Legal Notice
Copyright © 2001-2014 MetalTabs.com. All Rights Reserved.