top separator

Home

Forum

What's New

Submit a Tab

FAQ

Links

Contact Us

Link to Us

MetalTabs.com logo

Bands

0-9

A

B

C

D

E

F

G

H

I

J

K

L

M

N

O

P

Q

R

S

T

U

V

W

X

Y

Z

Search

What

Where
 

Summoning - "Like Some Snow-white Marble Eyes" Guitar Tab

Plain Text Version
More Summoning Tabs

Hits: 5019
Updated: 2005-11-28 00:00:35

 

By:

PutridWinds

sendpm.gif

email.gif

Important note
This tab is available online because we obtained explicit permission from Summoning or their label.


#----------------------------------PLEASE NOTE---------------------------------#
#This file is the author's own work and represents their interpretation of the #
#song. You may only use this file for private study, scholarship, or research. #
#Unless specified otherwise, this is NOT an official tab from the band members.#
#------------------------------------------------------------------------------#

  Visit MetalTabs.com for more metal tablature
  
Band: Summoning
Album: Stronghold
Song: Like Some Snow White Marble Eyes
Copyright: 1999 Napalm Records
Tab: PutridWinds

.  - palm mute           /  - slide up to
\  - slide down to       ~  - vibrato
h  - hammer on           b  - Bend
p  - pull off            Suffixes for bend
t  - tap                 f  - full bend    h - half bend
ph - pinched harmonic    q  - quarter bend t - tap bend
*  - see comment         ^  - Hold bend    r release bend
x  - Stuccatto           ~  - vibrato bend
,  - slight palm mute    () - ghost note, sustained note
"  - tremolo note        <> - Trill

Tuning E A D G B E

NOTICE: The tab does not always follow the guitar part, it is the song
rearranged for guitar but some of the lines are actually played on oboe,
strings etc.

   Intro (Strings)
||----------------------|----------------------|----------------------|
||----------------------|----------------------|----------------------|
||--10------------13----|--12------------10----|--12------------------|
||--10------------------|----------------------|----------------13----|
||--8-------------------|--13------------------|--10------------------|
||----------------------|--11------------------|--8-------------------|



--------------------|----------------------|----------------------|
--------------------|----------------------|----------------------|
--10----------------|--10------------13----|--12------------10----|
--------------------|--10------------------|----------------------|
--8-----------------|--8-------------------|--13------------------|
--6-----------------|----------------------|--11------------------|



----------------------|--------------------|--------------------------|
----------------------|--------------------|--18------20--21----18----|
--12------------------|--10----------------|--------------------------|
----------------13----|--------------------|--------------------------|
--10------------------|--8-----------------|--------------------------|
--8-------------------|--6-----------------|--------------------------|



----------------------|--------------------------|----------------------|
--20------------18----|--20------18--------20----|--18------------20----|
----------------------|--------------20----------|----------------------|
----------------------|--------------------------|----------------------|
----------------------|--------------------------|----------------------|
----------------------|--------------------------|----------------------|



--------------------------|----------------------|--------------------------|
--21------20--18----21----|--20------------18----|--20------18--------20----|
--------------------------|----------------------|--------------20----------|
--------------------------|----------------------|--------------------------|
--------------------------|----------------------|--------------------------|
--------------------------|----------------------|--------------------------|


                      Verse
--------------------|--------------------------|----------------------|
--18----------------|--18------20--21----18----|--20------------18----|
--------------------|--------------------------|----------------------|
--------------------|--------------------------|----------------------|
--------------------|--------------------------|----------------------|
--------------------|--------------------------|----------------------|



--------------------------|----------------------|--------------------------|
--20------18--------20----|--18------------20----|--21------20--18----21----|
--------------20----------|----------------------|--------------------------|
--------------------------|----------------------|--------------------------|
--------------------------|----------------------|--------------------------|
--------------------------|----------------------|--------------------------|



----------------------|--------------------------|----------------------|
--20------------18----|--20------18--------20----|--18--------------18--|
----------------------|--------------20----------|----------------------|
----------------------|--------------------------|----------------------|
----------------------|--------------------------|----------------------|
----------------------|--------------------------|----------------------|



----------18--20----------|--18------------------|--------------------------|
--21----------------21----|----------------21----|--20------18--------20----|
--------------------------|----------------------|--------------20----------|
--------------------------|----------------------|--------------------------|
--------------------------|----------------------|--------------------------|
--------------------------|----------------------|--------------------------|



----------------------|--------------------------|----------------------|
--18------------20----|--21------20--18----21----|--20------------18----|
----------------------|--------------------------|----------------------|
----------------------|--------------------------|----------------------|
----------------------|--------------------------|----------------------|
----------------------|--------------------------|----------------------|



--------------------------|--------------------|
--20------18--------20----|--18----------------|
--------------20----------|--------------------|
--------------------------|--------------------|
--------------------------|--------------------|
--------------------------|--------------------|


Chorus
--13---13-13--------------------|----------------------|
--------------13--------11--13--|--11--------------11--|
------------------13------------|----------------------|
--------------------------------|----------------------|
--------------------------------|----------------------|
--------------------------------|----------------------|



----------------------------|--------------------|
--13------------------------|--------------------|
----------12--------10--12--|--10----------------|
--------------13------------|--------------------|
----------------------------|--------------------|
----------------------------|--------------------|



--13---13-13--------------------|----------------------|
--------------13--------11--13--|--11--------------11--|
------------------13------------|----------------------|
--------------------------------|----------------------|
--------------------------------|----------------------|
--------------------------------|----------------------|



----------------------------|--------------------|
--13------------------------|--------------------|
----------12--------10--12--|--10----------------|
--------------13------------|--------------------|
----------------------------|--------------------|
----------------------------|--------------------|



--13---13-13--------------------|----------------------|
--------------13--------11--13--|--11--------------11--|
------------------13------------|----------------------|
--------------------------------|----------------------|
--------------------------------|----------------------|
--------------------------------|----------------------|



----------------------------|--------------------|
--13------------------------|--------------------|
----------12--------10--12--|--10----------------|
--------------13------------|--------------------|
----------------------------|--------------------|
----------------------------|--------------------|



--13---13-13--------------------|----------------------|
--------------13--------11--13--|--11--------------11--|
------------------13------------|----------------------|
--------------------------------|----------------------|
--------------------------------|----------------------|
--------------------------------|----------------------|



----------------------------|--------------------|
--13------------------------|--------------------|
----------12--------10--12--|--10----------------|
--------------13------------|--------------------|
----------------------------|--------------------|
----------------------------|--------------------|


Re-Intro
--------------------------|----------------------|--------------------------|
--18------20--21----18----|--20------------18----|--20------18--------20----|
--------------------------|----------------------|--------------20----------|
--------------------------|----------------------|--------------------------|
--------------------------|----------------------|--------------------------|
--------------------------|----------------------|--------------------------|



----------------------|--------------------------|----------------------|
--18------------20----|--21------20--18----21----|--20------------18----|
----------------------|--------------------------|----------------------|
----------------------|--------------------------|----------------------|
----------------------|--------------------------|----------------------|
----------------------|--------------------------|----------------------|


                                                Verse
--------------------------|--------------------|--------------------------|
--20------18--------20----|--18----------------|--18------20--21----18----|
--------------20----------|--------------------|--------------------------|
--------------------------|--------------------|--------------------------|
--------------------------|--------------------|--------------------------|
--------------------------|--------------------|--------------------------|



----------------------|--------------------------|----------------------|
--20------------18----|--20------18--------20----|--18------------20----|
----------------------|--------------20----------|----------------------|
----------------------|--------------------------|----------------------|
----------------------|--------------------------|----------------------|
----------------------|--------------------------|----------------------|



--------------------------|----------------------|--------------------------|
--21------20--18----21----|--20------------18----|--20------18--------20----|
--------------------------|----------------------|--------------20----------|
--------------------------|----------------------|--------------------------|
--------------------------|----------------------|--------------------------|
--------------------------|----------------------|--------------------------|



----------------------|----------18--20----------|--18------------------|
--18--------------18--|--21----------------21----|----------------21----|
----------------------|--------------------------|----------------------|
----------------------|--------------------------|----------------------|
----------------------|--------------------------|----------------------|
----------------------|--------------------------|----------------------|



--------------------------|----------------------|--------------------------|
--20------18--------20----|--18------------20----|--21------20--18----21----|
--------------20----------|----------------------|--------------------------|
--------------------------|----------------------|--------------------------|
--------------------------|----------------------|--------------------------|
--------------------------|----------------------|--------------------------|



----------------------|--------------------------|--------------------|
--20------------18----|--20------18--------20----|--18----------------|
----------------------|--------------20----------|--------------------|
----------------------|--------------------------|--------------------|
----------------------|--------------------------|--------------------|
----------------------|--------------------------|--------------------|


 Chorus
--13---13-13--------------------|----------------------|
--------------13--------11--13--|--11--------------11--|
------------------13------------|----------------------|
--------------------------------|----------------------|
--------------------------------|----------------------|
--------------------------------|----------------------|



----------------------------|--------------------|
--13------------------------|--------------------|
----------12--------10--12--|--10----------------|
--------------13------------|--------------------|
----------------------------|--------------------|
----------------------------|--------------------|



--13---13-13--------------------|----------------------|
--------------13--------11--13--|--11--------------11--|
------------------13------------|----------------------|
--------------------------------|----------------------|
--------------------------------|----------------------|
--------------------------------|----------------------|



----------------------------|--------------------|
--13------------------------|--------------------|
----------12--------10--12--|--10----------------|
--------------13------------|--------------------|
----------------------------|--------------------|
----------------------------|--------------------|



--13---13-13--------------------|----------------------|
--------------13--------11--13--|--11--------------11--|
------------------13------------|----------------------|
--------------------------------|----------------------|
--------------------------------|----------------------|
--------------------------------|----------------------|



----------------------------|--------------------|
--13------------------------|--------------------|
----------12--------10--12--|--10----------------|
--------------13------------|--------------------|
----------------------------|--------------------|
----------------------------|--------------------|



--13---13-13--------------------|----------------------|
--------------13--------11--13--|--11--------------11--|
------------------13------------|----------------------|
--------------------------------|----------------------|
--------------------------------|----------------------|
--------------------------------|----------------------|



----------------------------|--------------------|
--13------------------------|--------------------|
----------12--------10--12--|--10----------------|
--------------13------------|--------------------|
----------------------------|--------------------|
----------------------------|--------------------|


Rest for 8 Bars (Strings that I couldnt tab play)


Bridge
------------------------------|------------------------|
------------------11--13------|--14--------------14----|
--10------12--13----------13--|------------13----------|
------------------------------|------------------------|
------------------------------|------------------------|
------------------------------|------------------------|



--------------------------|--------------------------|
--13------11--------13----|--11------13--14----11----|
--------------13----------|--------------------------|
--------------------------|--------------------------|
--------------------------|--------------------------|
--------------------------|--------------------------|



------------------------------|--13--------------13----|
--------------------------13--|------------14----------|
--13------12--10--12--13------|------------------------|
------------------------------|------------------------|
------------------------------|------------------------|
------------------------------|------------------------|



--11----------------------|--------------------------|
----------14--13----------|--11----------------------|
--------------------13----|----------13--12----------|
--------------------------|--------------------13----|
--------------------------|--------------------------|
--------------------------|--------------------------|
------------------------------|------------------------|
------------------11--13------|--14--------------14----|
--10------12--13----------13--|------------13----------|
------------------------------|------------------------|
------------------------------|------------------------|
------------------------------|------------------------|



--------------------------|--------------------------|
--13------11--------13----|--11------13--14----11----|
--------------13----------|--------------------------|
--------------------------|--------------------------|
--------------------------|--------------------------|
--------------------------|--------------------------|



------------------------------|--13--------------13----|
--------------------------13--|------------14----------|
--13------12--10--12--13------|------------------------|
------------------------------|------------------------|
------------------------------|------------------------|
------------------------------|------------------------|



--11----------------------|--------------------------|
----------14--13----------|--11----------------------|
--------------------13----|----------13--12----------|
--------------------------|--------------------13----|
--------------------------|--------------------------|
--------------------------|--------------------------|




------------------------------|------------------------|
------------------11--13------|--14--------------14----|
--10------12--13----------13--|------------13----------|
------------------------------|------------------------|
------------------------------|------------------------|
------------------------------|------------------------|



--------------------------|--------------------------|
--13------11--------13----|--11------13--14----11----|
--------------13----------|--------------------------|
--------------------------|--------------------------|
--------------------------|--------------------------|
--------------------------|--------------------------|



------------------------------|--13--------------13----|
--------------------------13--|------------14----------|
--13------12--10--12--13------|------------------------|
------------------------------|------------------------|
------------------------------|------------------------|
------------------------------|------------------------|



--11----------------------|--------------------------|
----------14--13----------|--11----------------------|
--------------------13----|----------13--12----------|
--------------------------|--------------------13----|
--------------------------|--------------------------|
--------------------------|--------------------------|

  Verse
--------------------------|----------------------|
--18------20--21----18----|--20------------18----|
--------------------------|----------------------|
--------------------------|----------------------|
--------------------------|----------------------|
--------------------------|----------------------|



--------------------------|----------------------|--------------------------|
--20------18--------20----|--18------------20----|--21------20--18----21----|
--------------20----------|----------------------|--------------------------|
--------------------------|----------------------|--------------------------|
--------------------------|----------------------|--------------------------|
--------------------------|----------------------|--------------------------|



----------------------|--------------------------|----------------------|
--20------------18----|--20------18--------20----|--18--------------18--|
----------------------|--------------20----------|----------------------|
----------------------|--------------------------|----------------------|
----------------------|--------------------------|----------------------|
----------------------|--------------------------|----------------------|



----------18--20----------|--18------------------|--------------------------|
--21----------------21----|----------------21----|--20------18--------20----|
--------------------------|----------------------|--------------20----------|
--------------------------|----------------------|--------------------------|
--------------------------|----------------------|--------------------------|
--------------------------|----------------------|--------------------------|



----------------------|--------------------------|----------------------|
--18------------20----|--21------20--18----21----|--20------------18----|
----------------------|--------------------------|----------------------|
----------------------|--------------------------|----------------------|
----------------------|--------------------------|----------------------|
----------------------|--------------------------|----------------------|



--------------------------|--------------------|
--20------18--------20----|--18----------------|
--------------20----------|--------------------|
--------------------------|--------------------|
--------------------------|--------------------|
--------------------------|--------------------|


Chorus
--13---13-13--------------------|----------------------|
--------------13--------11--13--|--11--------------11--|
------------------13------------|----------------------|
--------------------------------|----------------------|
--------------------------------|----------------------|
--------------------------------|----------------------|



----------------------------|--------------------|
--13------------------------|--------------------|
----------12--------10--12--|--10----------------|
--------------13------------|--------------------|
----------------------------|--------------------|
----------------------------|--------------------|



--13---13-13--------------------|----------------------|
--------------13--------11--13--|--11--------------11--|
------------------13------------|----------------------|
--------------------------------|----------------------|
--------------------------------|----------------------|
--------------------------------|----------------------|



----------------------------|--------------------|
--13------------------------|--------------------|
----------12--------10--12--|--10----------------|
--------------13------------|--------------------|
----------------------------|--------------------|
----------------------------|--------------------|


Bridge (Eventually Fade Out)
------------------------------|------------------------|
------------------11--13------|--14--------------14----|
--10------12--13----------13--|------------13----------|
------------------------------|------------------------|
------------------------------|------------------------|
------------------------------|------------------------|



--------------------------|--------------------------|
--13------11--------13----|--11------13--14----11----|
--------------13----------|--------------------------|
--------------------------|--------------------------|
--------------------------|--------------------------|
--------------------------|--------------------------|



------------------------------|--13--------------13----|
--------------------------13--|------------14----------|
--13------12--10--12--13------|------------------------|
------------------------------|------------------------|
------------------------------|------------------------|
------------------------------|------------------------|



--11----------------------|--------------------------|
----------14--13----------|--11----------------------|
--------------------13----|----------13--12----------|
--------------------------|--------------------13----|
--------------------------|--------------------------|
--------------------------|--------------------------|
------------------------------|------------------------|
------------------11--13------|--14--------------14----|
--10------12--13----------13--|------------13----------|
------------------------------|------------------------|
------------------------------|------------------------|
------------------------------|------------------------|



--------------------------|--------------------------|
--13------11--------13----|--11------13--14----11----|
--------------13----------|--------------------------|
--------------------------|--------------------------|
--------------------------|--------------------------|
--------------------------|--------------------------|



------------------------------|--13--------------13----|
--------------------------13--|------------14----------|
--13------12--10--12--13------|------------------------|
------------------------------|------------------------|
------------------------------|------------------------|
------------------------------|------------------------|



--11----------------------|--------------------------|
----------14--13----------|--11----------------------|
--------------------13----|----------13--12----------|
--------------------------|--------------------13----|
--------------------------|--------------------------|
--------------------------|--------------------------|




------------------------------|------------------------|
------------------11--13------|--14--------------14----|
--10------12--13----------13--|------------13----------|
------------------------------|------------------------|
------------------------------|------------------------|
------------------------------|------------------------|



--------------------------|--------------------------|
--13------11--------13----|--11------13--14----11----|
--------------13----------|--------------------------|
--------------------------|--------------------------|
--------------------------|--------------------------|
--------------------------|--------------------------|



------------------------------|--13--------------13----|
--------------------------13--|------------14----------|
--13------12--10--12--13------|------------------------|
------------------------------|------------------------|
------------------------------|------------------------|
------------------------------|------------------------|



--11----------------------|--------------------------||
----------14--13----------|--11----------------------||
--------------------13----|----------13--12----------||
--------------------------|--------------------13----||
--------------------------|--------------------------||
--------------------------|--------------------------||

END

  Visit MetalTabs.com for more metal tablature

bottom separator

Contact Us | Privacy Policy | Disclaimer | Legal Notice
Copyright © 2001-2014 MetalTabs.com. All Rights Reserved.