top separator

Home

Forum

What's New

Submit a Tab

FAQ

Links

Contact Us

Link to Us

MetalTabs.com logo

Bands

0-9

A

B

C

D

E

F

G

H

I

J

K

L

M

N

O

P

Q

R

S

T

U

V

W

X

Y

Z

Search

What

Where
 

Severed Savior - "Brutality Is Law" Guitar Tab

Plain Text Version
More Severed Savior Tabs

Hits: 2524
Rated: 4.00 out of 5 (4 votes)
Updated: 2005-11-27 23:59:11

 

By:

humancorpse

sendpm.gif

email.gif

Important note
This tab is available online because we obtained explicit permission from Severed Savior or their label.


#----------------------------------PLEASE NOTE---------------------------------#
#This file is the author's own work and represents their interpretation of the #
#song. You may only use this file for private study, scholarship, or research. #
#Unless specified otherwise, this is NOT an official tab from the band members.#
#------------------------------------------------------------------------------#

  Visit MetalTabs.com for more metal tablature
  
Band:  Severed Saviour
Album: Brutality is law
Song:  Brutality is law

Copyright (c)  Unique leader records 2003
Version 1.0 - 23.11.05

Transcribed By: Sigbjørn Henning
Email:          Siggi_scratch@hotmail.com


.  - palm mute           /  - slide up to
\  - slide down to       ~  - vibrato
h  - hammer on           b  - Bend
p  - pull off            Suffixes for bend
t  - tap                 f  - full bend    h - half bend
ph - pinched harmonic    q  - quarter bend t - tap bend
*  - see comment         ^  - Hold bend    r release bend
x  - Stuccatto           ~  - vibrato bend
,  - slight palm mute    () - ghost note, sustained note
"  - tremolo note        <> - Trill

Tuning C#

OK, this was pretty hard to tab, so don`t expect
it to be perfect, but it should atleast give a
good idea of how to play it. Pay attention to
the song, some stuff it pretty damn hard to hear.
Contact me for corrections or question.

Enjoy!



Intro Guitar 1   00:00             2x
|-----------------------------------|
|-----------------------------------|
|-----------------------------------|
|-6"5"-----6-5-4-3-6"5"-6-5-4-3-4-3-|
|-----4"5"-4-3-2-1------4-3-2-1-2-1-|
|----------4-3-2-1------4-3-2-1-2-1-|
|          . . . .      . . . . . .
|
|
|
|Guiatar 2
|-----------------------------------|
|-----------------------------------|
|-----------------------------------|
|----------6-5-4-3------6-5-4-3-4-3-|
|----------4-3-2-1------4-3-2-1-2-1-|
|----------4-3-2-1------4-3-2-1-2-1-|
           . . . .     . . . . . .


Riff 1  00:07                                                            2x
|-------------------------------------------------------------------------|
|-------------------------------------------------------------------------|
|----------------------------------------------------------6--------------|
|-6"5"------------6"5"-----6-5---------------------------5----------------|
|-----4"5"6"5"7"6"----4"5"-4-3-------------------------4------------------|
|--------------------------4-3-4-3-1-0-1-3-4-6-8-8-7-6-------444488333377-|
                           . . . . . . . . . . . . . .


Riff 2 00:20                                                               1x
|---------------------------------------------------------------------------|
|---------------------------------------------------------------------------|
|---------------------------------------------------------------------------|
|-6"5"------------6"5"-----6-5-----------------6"5"------------6"5"-----6-5-|
|-----4"5"6"5"7"6"----4"5"-4-3---------------------4"5"6"5"7"6"----4"5"-4-3-|
|--------------------------4-3-4-3-1-0-111-111--------------------------4-3-|
                           . . . . . . ... ...                          . .


|------------------------------------------|
|------------------------------------------|
|------------------------------------------|
|----------------------------------------7-|
|-----------------6"5"--5"-2-----------6---|
|-4-3-1-0-111-111-----2"---2-0-1-3-4-5-----|
  . . . . ... ...          . . . . . . . .

Riff 3    00:30                                                            1x
|---------------------------------------------------------------------------|
|---------------------------------------------------------------------------|
|----------------------------------------------------------6----------------|
|-6"5"------------6"5"-----6-5---------------------------5------------------|
|-----4"5"6"5"7"6"----4"5"-4-3-------------------------4------------------2-|
|--------------------------4-3-4-3-1-0-1-3-4-6-8-8-7-6-------444488333377-2-|
                           . . . . . . . . . . . . . .                    .


Riff 4a 00:37                               3x
|-------------------------------------------|
|-------------------------------------------|
|-------------------------------------------|
|-------------------------------------------|
|------------------9-7-10-7-13-10-----------|
|--5-3-6-3-9-6-0-0----------------7-9-10-13-|
               . .


Riff 4b 00:50 Guitar 1                    1x
|-------------------------------------------|
|-------------------------------------------|
|-------------------------------------------|
|-------------------------------------------|
|------------------9-7-10-7-13-10-----------|
|--5-3-6-3-9-6-0-0----------------7-9-10-13-|
|              . .
|
|
|
|Guitar 2
|-------------------------------------------|
|-------------------------------------------|
|-------------------------------------------|
|-------------------------------------------|
|------------------5-3-6-3-9-6--------------|
|--5-3-6-3-9-6-0-0-------------3-5-6-9------|
               . .


Riff 5a 00:54  (those are 2s not 22s)       2x
|--------------------------------------------|
|--------------------------------------------|
|--------------------------------------------|
|--------------------------------------------|
|-------------------9-7-10-7-13-10-----------|
|-5-3-6-3-22/3-22/3----------------7-9-10-13-|
  . . . . .. . .. . . . .  . .  .  . . .  .



Riff 5b 00:58  (those are 2s not 22s)       2x
|--------------------------------------------|
|--------------------------------------------|
|--------------------------------------------|
|--------------------------------------------|
|------------------9-7-10-7-13-10------------|
|-5-3-6-3-9-6-22/3----------------7-9-10-13--|
  . . . . . . .. . . . .  . .  .  . . .  .


Riff 6  1:03                          1x
|---------------------------------------|
|---------------------------------------|
|---------------------------------------|
|---------------------------------------|
|---8"7"--10"9"--------8-7--------------|
|-5"----8"-----10"9"-5-----8-10-8-7-8-8-|
                     . . . . .  . . . .



Fill Guitar 1  1:06   1x
|--------------------|
|--------------------|
|--------------------|
|--------------------|
|---8-7--------------|
|-5-----8-10-8-7-8-8-|
| . . . . .  . . . .
|
|
|
|
|Guitar 2
|-------------------|
|-------------------|
|-------------------|
|-------------------|
|---6-5-------------|
|-3-----6-8-6-5-6-6-|
  . . . . . . . . .


Riff 7 1:07                                          1x
|-----------------------------------------------------|
|-----------------------------------------------------|
|-6-5-----8-7-----------------------------------------|
|-----6-5-----8-7-5-4-7-6-------------------4-3-3-2-3-|
|-------------------------4-3-6/7-6-5-6-4-3-----------|
|-----------------------------------------------------|
 . . . . . . . . . . . . . . . .. . . . . . . . . . .


1:11                                                       1x
|----------------------------------------------------------|
|----------------------------------------------------------|
|----------------------------------------------------------|
|----------------------------------------------------------|
|---8"7"--10"9"--------8-7----------------8-7--------------|
|-5"----8"-----10"9"-5-----8-10-8-7-8-8-5-----8-10-8-7-8-8-|
                     . . . . .  . . . . . . . . . . . . .


1:16                                                   3x
|-------------------------------------------------------|
|-------------------------------------------------------|
|-6-5-----8-7-------------------------------------------|
|-----6-5-----8-7-5-4-5-6---------------------4-3-3-2-3-|
|-------------------------4-3-6-7-5-4-5-6-4-3-----------|
|-------------------------------------------------------|
  . . . . . . . . . . . . . . . . . . . . . . . . . . .


 1:27                                                    1x
|---------------------------------------------------------|
|---------------------------------------------------------|
|-6-5-----8-7---------------------------------------------|
|-----6-5-----8-7-5-4-5-6---------------------4-3-3-2-4-5-|
|-------------------------4-3-6-7-5-4-5-6-4-3-------------|
|---------------------------------------------------------|
  . . . . . . . . . . . . . . . . . . . . . . . . . . . .


Riff 8    1:32                                                       4X
|---------------------------------------------------------------------|
|---------------------------------------------------------------------|
|---------------------------------------------------------------------|
|-6"5"-6-5-4-3-4-3-6"5"-----6-5-4-3-6"5"-6-5-4-3-4-3-6"5"-------------|
|------4-3-2-1-2-1-----4"5"-4-3-2-1------4-3-2-1-2-1-----4"5"6"5"7"6"-|
|------4-3-2-1-2-1----------4-3-2-1------4-3-2-1-2-1------------------|
       . . . . . .          . . . .      . . . . . .


Fill  2:01               1x
|-------------------------|
|-------------------------|
|-------------------------|
|-------------------------|
|-6-------5---------------|
|---3-5-4---2-4-3-2-1-0-1-|
  . . . . . . . . . . . .


Riff 9 2:03                                                                  3x
|-----------------------------------------------------------------------------|
|-----------------------------------------------------------------------------|
|---------------------------------------------------------------5-------------|
|--------6"5"-------------------------------------------------4---------------|
|6"5"8"7"----4"7"-6-------5---------------------------------3-----------------|
|-------------------3-5-4---2-4-3-2-1-0-1-2-1-2-3-4-6-6-5-4-------444488333377|
            . . . . . . . . . . . . . . . . . . . . . . . .


Fill 2:23
|------------------|
|------------------|
|------------------|
|---------6"5"-----|
|-6"5"8"7"----4"7"-|
|------------------|



Riff 10  2:24                                          3x
|-------------------------------------------------------|
|-------------------------------------------------------|
|-6-5-----8-7-------------------------------------------|
|-----6-5-----8-7-5-4-5-6---------------------4-3-3-2-3-|
|-------------------------4-3-6-7-5-4-5-6-4-3-----------|
|-------------------------------------------------------|
  . . . . . . . . . . . . . . . . . . . . . . . . . . .


  2:35                                                   1x
|---------------------------------------------------------|
|---------------------------------------------------------|
|-6-5-----8-7---------------------------------------------|
|-----6-5-----8-7-5-4-5-6---------------------4-3-3-2-4-5-|
|-------------------------4-3-6-7-5-4-5-6-4-3-------------|
|---------------------------------------------------------|
  . . . . . . . . . . . . . . . . . . . . . . . . . . . .



Riff 5b 2:38                               4x
|--------------------------------------------|
|--------------------------------------------|
|--------------------------------------------|
|--------------------------------------------|
|------------------9-7-10-7-13-10------------|
|-5-3-6-3-9-6-22/3----------------7-9-10-13--|
  . . . . . . .. . . . .  . .  .  . . .  .


Fill Guitar 1 2:47
|-----------------|
|-----------------|
|-----------------|
|-----------------|
|-----------------|
|-5-3-6-3-9-6-0-0-|
|             . .
|
|
|
|Guitar 2
|-----------------|
|-----------------|
|-----------------|
|-----------------|
|-----------------|
|-------------0-0-|
              . .



Riff 4a   (under solo)      2:49           5x
|------------------------------------------|
|------------------------------------------|
|------------------------------------------|
|------------------------------------------|
|-----------------9-7-10-7-13-10-----------|
|-5-3-6-3-9-6-0-0----------------7-9-10-13-|
               . .


Ending 3:10
|----------------------------------------------|
|----------------------------------------------|
|----------------------------------------------|
|-6"5"------------6"5"-----6-5-----------------|
|-----4"5"6"5"7"6"----4"5"-4-3-----------------|
|--------------------------4-3-4-3-1-0-111-111-|
                           . . . . . . ... ...

|---------------------------------------------------------------------------|
|---------------------------------------------------------------------------|
|----------------------------------------------------------6----------------|
|-6"5"------------6"5"-----6-5---------------------------5------------------|
|-----4"5"6"5"7"6"----4"5"-4-3-------------------------4------------------2-|
|--------------------------4-3-4-3-1-0-1-3-4-6-8-8-7-6-------444488333377-2-|
                           . . . . . . . . . . . . . . . . .              .

End.

  Visit MetalTabs.com for more metal tablature

bottom separator

Contact Us | Privacy Policy | Disclaimer | Legal Notice
Copyright © 2001-2014 MetalTabs.com. All Rights Reserved.