top separator

Home

Forum

What's New

Submit a Tab

FAQ

Links

Contact Us

Link to Us

MetalTabs.com logo

Bands

0-9

A

B

C

D

E

F

G

H

I

J

K

L

M

N

O

P

Q

R

S

T

U

V

W

X

Y

Z

Search

What

Where
 

Graveworm - "Hateful Design" Guitar Tab

Plain Text Version
More Graveworm Tabs

Hits: 9003
Rated: 4.25 out of 5 (4 votes)
Updated: 2005-12-17 20:38:17

 

By:

Tjaial

sendpm.gif

email.gif

Important note
This tab is available online because we obtained explicit permission from Graveworm or their label.


#----------------------------------PLEASE NOTE---------------------------------#
#This file is the author's own work and represents their interpretation of the #
#song. You may only use this file for private study, scholarship, or research. #
#Unless specified otherwise, this is NOT an official tab from the band members.#
#------------------------------------------------------------------------------#

  Visit MetalTabs.com for more metal tablature
  
Band:  Graveworm
Album: (N)utopia
Song:  Hateful Design
Version 1.0 -   23-11-05
Transcribed By: Tjaial
Email:          Tjaial@aol.com
Copyright (c)   Nuclear Blast

.  - palm mute           /  - slide up to
  - slide down to       ~  - vibrato
h  - hammer on           b  - Bend
p  - pull off            Suffixes for bend
t  - tap                 f  - full bend    h - half bend
ph - pinched harmonic    q  - quarter bend t - tap bend
*  - see comment         ^  - Hold bend    r release bend
x  - Stuccatto           ~  - vibrato bend
,  - slight palm mute    () - ghost note, sustained note
"  - tremolo note        <> - Trill

Tuning B E A D F# B

listen to the song for timing

Intro with weird effect (00:00)
|---------------------------------------------|
|---------------------------------------------|
|---------------------------------------------|
|---------------------------------------------|
|-2-2222-2-2222-2-2-2-2222-2-22222-2-2-2------|
|-0-0000-0-0000-0-0-0-0000-0-00000-0-0-0....--|
    ....   ....       ....   .....

Again without effect when Guitar 2 comes in (00:12)
|-----------------------------------------------|
|-----------------------------------------------|
|-----------------------------------------------|
|-----------------------------------------------|
|-2-2222-2-2222-2-2-2-2222-2-22222-2-2-2-----2--|
|-0-0000-0-0000-0-0-0-0000-0-00000-0-0-0....-0--|
    ....   ....       ....   .....


Riff 1 (00:28)
|-------------------------------------------------|
|-------------------------------------------------|
|---------------2----------------------2----------|
|-----------------0-2-3------------------2h3p2-0--|
|-22*-2----5-------------22*-2----5---------------|
|-00*-0-00---00----------00*-0-00---00------------|
        ..   ..   . . .        ..   ..
Guitar 2 (00:31)
|-------------------------|
|-------------------------|
|-------------------------|
|-------------------------|
|-2--22-2--22-2--22-2--2--|
|-0--00-0--00-0--00-0--0--|

Riff 1 (00:40)

Riff 2 (00:52)
|-----------------------------------------------------|
|-----------------------------------------------------|
|----------5"-----------5"-----------5"-----------5"--|
|----------3"-----------3"-----------3"-----------3"--|
|-22*-2-22-----22*-2-22-----22*-2-22-----22*-2-22-----|
|-00*-0-00-----00*-0-00-----00*-0-00-----00*-0-00-----|
        .            .            .            .

Riff 1 (01:04)

Riff 3 (01:29)                          End riff with
|-----------------------------|-------|  |----------------|
|-----------------------------|-------|  |----------------|
|----7--6--7--9----------7--6-|-12-14-|  |-1212*-12-1414--|
|----5--4--5--7----------5--4-|-10-12-|  |-1010*-10-1212--|
|-2---------------2---2-------|-------|  |----------------|
|-0---------------0-0-0-------|-------|  |----------------|
                    .

Riff 4 (01:54)
|-----------------------------------|
|-----------------------------------|
|-----------------------------------|
|---7-5-4-5-7-5-7----7-5-4-5-7-5-7--|x4
|-2-5-3-2-3-5-3-5--2-5-3-2-3-5-3-5--|
|-0--0-0-0-0-------0--0-0-0-0-0-0---|
     . . . .          . . . . . .

Riff 1 (02:19)
Riff 2 (02:30)

Riff 5 (02:43)
|-------------------------------------|
|-------------------------------------|
|-------------------------------------|
|-------------------------------------|
|-2--------2------2--------2----------|
|-0-000000-0-0000-0-000000-0-0000...--|
    ......   ....   ......   ....

Riff 4.1 (02:56)
|-----------------------------------|  |-------------------------------|
|-----------------------------------|  |-------------------------------|
|-----------------------------------|  |-------------------------------|
|---7-5-4-5-7-5-7----7-5-4-5-7-5-7--|x3|---7-5-4-5-7-5-7----7-5-4-5-7--|
|-2-5-3-2-3-5-3-5--2-5-3-2-3-5-3-5--|  |-2-5-3-2-3-5-3-5--2-5-3-2-3-5--|
|-0--0-0-0-0-------0--0-0-0-0-0-0---|  |-0--0-0-0-0-------0--0-0-0-0---|
     . . . .          . . . . . .           . . . .          . . . .

Riff 3   (03:20)
Riff 4.1 (03:44)

*= Mute The Note

END

  Visit MetalTabs.com for more metal tablature

bottom separator

Contact Us | Privacy Policy | Disclaimer | Legal Notice
Copyright © 2001-2014 MetalTabs.com. All Rights Reserved.