top separator

Home

Forum

What's New

Submit a Tab

FAQ

Links

Contact Us

Link to Us

MuSpy.com

MetalTabs.com logo

Bands

0-9

A

B

C

D

E

F

G

H

I

J

K

L

M

N

O

P

Q

R

S

T

U

V

W

X

Y

Z

Search

What

Where
 

Gorgasm - "Fisticunt" Guitar Tab

Plain Text Version
More Gorgasm Tabs

Hits: 3434
Rated: 5.00 out of 5 (1 vote)
Updated: 2005-11-24 06:32:09

 

By:

Yura

sendpm.gif

email.gif

Important note
This tab is available online because we obtained explicit permission from Gorgasm or their label.


#----------------------------------PLEASE NOTE---------------------------------#
#This file is the author's own work and represents their interpretation of the #
#song. You may only use this file for private study, scholarship, or research. #
#Unless specified otherwise, this is NOT an official tab from the band members.#
#------------------------------------------------------------------------------#

  Visit MetalTabs.com for more metal tablature
  
--- G O R G A S M ---
                                "Fisticunt"
                     From album: "Bleeding Profusely"
                     Copyright Extremities Productions 2001 
                     Version 1.0 (November'05)
                     Transcribed by: Yura Kowalchuk
                     Contact:[yura@grindcore.net]
                             [yura_kowalchuk@mail.ru]
                     HOME PAGE:http://www.blood-scrapes.nm.ru
                               http://brutaltabs.musica.mustdie.ru

                            TABULATURE LEGEND:
                   " - tremolo             h - hammer on
                   ~ - vibrato             \ - slide down
                   p - pull off            / - slide down
                  tr - tremolo picking     ^ - pinch harmonics
                   = - sustained note      b - bend string
                p.m. - palm muting         t - tapping

TUNING: B [B, E, A, d, gb, B]

[Intro]
|----------------------------------|----------------------------------|
|----------------------------------|----------------------------------|
|----------------------------------|-------------7777--------6666-----|
|-8888----555588887777----44447777-|-8888----5555--------5555----5555-|
|-----6666------------5555---------|-----6666--------4444-------------|
|----------------------------------|----------------------------------|
|                                  |                                  |
|----------------------------------|----------------------------------|
|----------------------------------|----------------------------------|
|----------------------------------|-------------7777--------6666-----|
|----------------------------------|-8888----5555--------5555----5555-|
|----------------------------------|-----6666--------4444-------------|
|----------------------------------|----------------------------------|

[Riff 1 (x3)]
||-----------------------------------|-----------------------------------||
||o----------------------------------|----------------------------------o||
||-----------------------------------|-------------7777--------6666------||
||--8888----555588887777----44447777-|-8888----5555--------5555----5555--||
||o-----6666------------5555---------|-----6666--------4444-------------o||
||-----------------------------------|-----------------------------------||

[Outro 1]
|----------------------------------|
|----------------------------------|
|----------------------------------|
|-8888----555588887777----44447777-|
|-----6666------------5555---------|
|----------------------------------|

[Riff 2 (x2)]
||----------------------------------|-----------------------------------||
||o---------------------------------|----------------------------------o||
||----------7-----6-----------------|---------7-----6-------------------||
||----6-5-------5-----6-5---6-5-----|---6-5-------5-----6-5---6-5---5---||
||o-4-----4---4-----4-----4-------8-|-4-----4---4-----4-----4----------o||
||------------------------------6---|-----------------------------3-----||
    . . . . . . . . . . . . . . . .   . . . . . . . . . . . . . . . .

[Outro 2]
|------------------------------|-----------------------------|
|------------------------------|-----------------------------|
|------------------------------|-----------------------------|
|------------------------------|-----------------------------|
|-5-------5---5---5-------5----|-5-------5---5---5-------5---|
|---7-6-6---7---7---7-6-6------|---7-6-6---7---7---7-6-6---7-|
  . . . . . . . . . . . . .      . . . . . . . . . . . . . .

[Riff 3]
|--------------------------------------------------|-
|--------------------------------------------------|-
|--------------------------------------------------|-
|---------5555--------5555-------------------------|-
|-33336666----22225555-----------------------------|-
|--------------------------------------------------|-
|                                                  |
|--------------------------------------------------|-
|--------------------------------------------------|-
|--------------------------------------------------|-
|---------5555--------5555-------------------------|-
|-33336666----22225555-------------5-5-4-4-5-5-6-6-|-
|--------------------------3-3-6-6-----------------|-
                           . . . . . . . . . . . .

-|------------------------------------------------|-
-|------------------------------------------------|-
-|------------------------------------------------|-
-|------------------------------------------------|-
-|-4-33335555666655553333--------555544445555-----|-
-|-2---------------------33336666------------6666-|-
 |                                                |
-|------------------------------------------------|-
-|------------------------------------------------|-
-|------------------------------------------------|-
-|------------------------------------------------|-
-|-4-33335555666655553333--------555544445555-----|-
-|-2---------------------33336666------------6666-|-

-|--------------------------|-------------------------|-
-|--------------------------|-------------------------|-
-|--------------------------|-------------------------|-
-|--------------------------|-------------------------|-
-|---------555544445555-----|---------5-5-4-4-5-5-6-6-|-
-|-22225555------------2222-|-3-3-6-6-----------------|-
 |                          | . . . . . . . . . . . . |
-|--------------------------|-------------------------|-
-|--------------------------|-------------------------|-
-|--------------------------|-------------------------|-
-|--------------------------|-------------------------|-
-|---------555544445555-----|---------5-5-4-4-5-5-6-6-|-
-|-22225555------------2222-|-3-3-6-6-----------------|-
                              . . . . . . . . . . . .

-|------------------------------------------------|-
-|------------------------------------------------|-
-|------------------------------------------------|-
-|------------------------------------------------|-
-|-4-33335555666655553333--------555544445555-----|-
-|-2---------------------33336666------------6666-|-
 |                                                |
-|------------------------------------------------|-
-|------------------------------------------------|-
-|------------------------------------------------|-
-|------------------------------------------------|-
-|-4-33335555666655553333--------555544445555-----|-
-|-2---------------------33336666------------6666-|-

-|--------------------------|
-|--------------------------|
-|--------------------------|
-|--------------------------|
-|---------555544445555-----|
-|-22225555------------2222-|
 |                          |
-|--------------------------|
-|--------------------------|
-|--------------------------|
-|--------------------------|
-|---------555544445555-----|
-|-22225555------------2222-|

[Riff 4 (x2)]
||----------------------------------------|-
||o---------------------------------------|-
||----------------------------------------|-
||-----9~-----------------9~----------9~--|-
||o-7-----7-----------7------7-----7------|-
||-----------7--5--7------------8---------|-
|   .        .  .  .  .  .       .  .  .  |
||----------------------------------------|-
||o---------------------------------------|-
||----------------------------------------|-
||-----9---------------9------------------|-
||o-7-----10--7-----7-----10--7-----7--10-|-
||---------------8---------------8--------|-
    .  .  .   .  .  .  .  .   .  .  .  .

-|---------------------------------------||
-|--------------------------------------o||
-|----^-----------------^-----------^----||
-|----8~----------------8~----------8~---||
-|-6-----6-----------6-----6-----6------o||
-|----------6--4--6-----------7----------||
 | .     .  .  .  .  .     .  .  .        |
-|---------------------------------------||
-|--------------------------------------o||
-|---------------------------------------||
-|----8--------------8-------------------||
-|-6-----9--6-----6-----9--6-----6--9---o||
-|-------------7--------------7----------||
   .  .  .  .  .  .  .  .  .  .  .  .

[Riff 5 (x2)]
||-----------------------------------||
||o---------------------------------o||
||-----------------------------------||
||----9---8---7-8-7---6-7-6---5---4--||
||o-7---6---5-------4-------3---2---o||
||-----------------------------------||

[Outro 1]

[Riff 6]
|---------------------------------|-
|---------------------------------|-
|---------------------------------|-
|---------------------------------|-
|---------------------------------|-
|---------------------------------|-
|                                 |
|---------------------------------|-
|---------------------------------|-
|---------------------------------|-
|---------------------------------|-
|---------------------------------|-
|-3-4-3-5-4-3-6-7-3-4-3-5-4-3-6-7-|-
  . . . . . . . . . . . . . . . .

-|---------------------------------------------------------|-
-|---------------------------------------------------------|-
-|---------------------------------------------------------|-
-|-----------------------5---------------------------------|-
-|-8-----7---6-8-----7-------------------------------------|-
-|---7-6---6-----7-6---6---3-4-3-5-4-3-6-7-3-4-3-5-4-3-6-7-|-
 | . . . . . . . . . . . . . . . . . . . . . . . . . . . . |
-|---------------------------------------------------------|-
-|---------------------------------------------------------|-
-|---------------------------------------------------------|-
-|-----------------------5---------------------------------|-
-|-8-----7---6-8-----7-------------------------------------|-
-|---7-6---6-----7-6---6---3-4-3-5-4-3-6-7-3-4-3-5-4-3-6-7-|-
   . . . . . . . . . . . . . . . . . . . . . . . . . . . .

-|---------------------------------------------------------|
-|---------------------------------------------------------|
-|---------------------------------------------------------|
-|-----------5---------------------------------------------|
-|-8-----7-4---8-----7---6---------------------------------|
-|---7-6---------7-6---6---3-4-3-5-4-3-6-7-3-4-3-5-4-3-6-7-|
 | . . . . . . . . . . . . . . . . . . . . . . . . . . . . |
-|---------------------------------------------------------|
-|---------------------------------------------------------|
-|---------------------------------------------------------|
-|-----------5---------------------------------------------|
-|-8-----7-4---8-----7---6---------------------------------|
-|---7-6---------7-6---6---3-4-3-5-4-3-6-7-3-4-3-5-4-3-6-7-|
   . . . . . . . . . . . . . . . . . . . . . . . . . . . .

[Riff 7 (x2)]
||--------------------------|-------------------------|-
||o-------------------------|-------------------------|-
||--------------------------|-------------------------|-
||--555-555-444-333-333-----|-555-555-444-333-333-----|-
||o-777-777-666-555-555-6-6-|-777-777-666-555-555-6-6-|-
||--------------------------|-------------------------|-
    ... ... ... ... ... . .   ... ... ... ... ... . .

-|-------------------------|---------------------------||
-|-------------------------|--------------------------o||
-|-------------------------|---------------------------||
-|-555-555-444-333-333-----|-5-5-5-5-4-4-222211112222--||
-|-777-777-666-555-555-6-6-|-7-7-7-7-6-6-444433334444-o||
-|-------------------------|---------------------------||
   ... ... ... ... ... . .   . . . . . .

[Riff 8 (x2)]
||-----------------------------------|-----------------------------------||
||o----------------------------------|----------------------------------o||
||-----------------------------------|-----------------------------------||
||------4444-------------------------|-----4444--------------------------||
||o-2222--------55552222-------------|-2222--------55552222-------------o||
||----------3333---------5-4-6-5-5-4-|---------3333---------7-7-6-6-6-6--||
                         . . . . . .                        . . . . . .

                                  [Riff 9 (x3)]
|---------------------------------||-----------------------------------||
|---------------------------------||-----------------------------------||
|---------------------------------||-----------------------------------||
|---------------------------------||--4------344477774444----34447777--||
|---------------------------------||o-3--6666------------6666---------o||
|---------------------------------||--2--------------------------------||
|                                 |                                     |
|---------------------------------||-----------------------------------||
|---------------------------------||o---------------------------------o||
|---------------------------------||-----------------------------------||
|-4------344477774444----34447777-||--4------344477774444----34447777--||
|-3--6666------------6666---------||o-3--6666------------6666---------o||
|-2-------------------------------||--2--------------------------------||

[Outro 3]
|-------------------------------------|
|-------------------------------------|
|-------------------------------------|
|-------------------------------------|
|-7--------6--------5--------4--------|
|-5--------4--------3--------2--------|
  .        .        .        .

[Ending] ~~~~~~~~~~~~~~~~~~~~~~~~fade out.............
||---------------------------------------------------|-
||o--------------------------------------------------|-
||---------------------------------------------------|-
||---------------------------------------------------|-
||o-2-------7~--7/9~--10~--8h9~7~-6~-----------------|-
||--0---6~----------------------------8~--7~-5\3-3-3-|-
|                                                    |
||---------------------------------------------------|-
||o--------------------------------------------------|-
||---------------------------------------------------|-
||--2===============================================-|-
||o-2===============================================-|-
||--0===============================================-|-

-|-------------------||
-|------------------o||
-|-------------------||
-|-------------------||
-|-----7~--9~--10~--o||
-|-6~----------------||
 |                    |
-|-------------------||
-|------------------o||
-|-------------------||
-|-------------------||
-|-1===============-o||
-|-3===============--||

END OF SONG

  Visit MetalTabs.com for more metal tablature

bottom separator

Contact Us | Privacy Policy | Disclaimer | Legal Notice
Copyright © 2001-2014 MetalTabs.com. All Rights Reserved.