top separator

Home

Forum

What's New

Submit a Tab

FAQ

Links

Contact Us

Link to Us

MuSpy.com

MetalTabs.com logo

Bands

0-9

A

B

C

D

E

F

G

H

I

J

K

L

M

N

O

P

Q

R

S

T

U

V

W

X

Y

Z

Search

What

Where
 

Battlelore - "Storm of the Blades" Guitar Tab

Plain Text Version
More Battlelore Tabs

Hits: 2961
Rated: 3.50 out of 5 (2 votes)
Updated: 2005-11-24 06:16:32

 

By:

Theoldman

sendpm.gif

email.gif

Important note
This tab is available online because we obtained explicit permission from Battlelore or their label.


#----------------------------------PLEASE NOTE---------------------------------#
#This file is the author's own work and represents their interpretation of the #
#song. You may only use this file for private study, scholarship, or research. #
#Unless specified otherwise, this is NOT an official tab from the band members.#
#------------------------------------------------------------------------------#

  Visit MetalTabs.com for more metal tablature
  
Band:  Battlelore
Album: Third Age Of The Sun
Song:  Storm Of The Blades

Copyright (c)  Napalm Records 2005
Version 1.0 - 18.11.2005

Transcribed By: Theoldman
Email:          swordbearing@hotmail.com
________________________________________

.  - palm mute           /  - slide up to
\  - slide down to       ~  - vibrato
h  - hammer on           b  - Bend
p  - pull off            Suffixes for bend
t  - tap                 f  - full bend    h - half bend
ph - pinched harmonic    q  - quarter bend t - tap bend
*  - see comment         ^  - Hold bend    r release bend
x  - Stuccatto           ~  - vibrato bend
,  - slight palm mute    () - ghost note, sustained note
"  - tremolo note        <> - Trill

Tuning B E A D G B

Riff 1 (0:00-0:27)
|----------------|
|----------------|
|----------------|
|--2-2---2-2---2-|
|2-2-2-2-2-2-2-2-|
|0-0-0-0-0-0-0-0-|
 .     .     .


Riff 2 (0:28-0:55)
|--------------|--------------|--------------|---------------|
|--------------|--------------|--------------|---------------|
|--------------|--------------|--------------|---------------|
|2-2--2--2-----|--2--2--2-----|2-2--2--2-----|--2--2------3--|
|2-2--2--2-----|--2--2--2-----|2-2--2--2-----|--2--2----3----|
|0-0-00--0-----|--0-00--0-----|0-0-00--0-----|--0-00--1------|
     .              .              .              .


Riff 1 (0:56-1:23)

Riff 2 (1:24-1:51)



Riff 3 (1:52-2:19)
|----------------|----------------|----------------|----------------|
|----------------|----------------|----------------|----------------|
|----4---4-2-5---|----4---4-2-----|----4---4-2-5---|----4-----5---5-|
|2---2---2-0-3---|2---2---2-0-5-7-|2---2---2-0-3---|2---2-----5---5-|
|2---2---2-0-3---|2---2---2-0-5-7-|2---2---2-0-3---|2---2-----3---3-|
|0---------------|0-----------3-5-|0---------------|0-------00--00--|
                            . . .                           ..  ..
|----------------|----------------|----------------|----------------|
|----------------|----------------|----------------|----------------|
|----4---4-2-5---|----4---4-2-----|----4---4-2-5---|----4-----------|
|2---2---2-0-3---|2---2---2-0-5-7-|2---2---2-0-3---|2---2-----3---3-|
|2---2---2-0-3---|2---2---2-0-5-7-|2---2---2-0-3---|2---2-----3---3-|
|0---------------|0-----------3-5-|0---------------|0-------001-001-|
                            . . .                           ..  ..


Riff 4 (2:20-2:47)
|----------------|----------------|----------------|----------------|
|----------------|----------------|----------------|----------------|
|----2-----4-5---|----2-----------|----2-----4-5---|----9-----7-9-5-|
|----2-----4-5---|----2-----5-7-3-|----2-----4-5---|----9-----7-9-5-|
|----0-----2-3---|----0-----5-7-3-|----0-----2-3---|----7-----5-7-3-|
|000---000-------|000---000-3-5-1-|000---000-------|000---000-------|
 ...   ...        ...   ...        ...   ...        ...   ...


Riff 1 (2:48-3:15)



Riff 5 (3:16)
|--------------|
|--------------|
|--------------|
|2-2--2--2-----|
|2-2--2--2-----|
|0-0-00--0-----|
     .


END

  Visit MetalTabs.com for more metal tablature

bottom separator

Contact Us | Privacy Policy | Disclaimer | Legal Notice
Copyright © 2001-2014 MetalTabs.com. All Rights Reserved.