top separator

Home

Forum

What's New

Submit a Tab

FAQ

Links

Contact Us

Link to Us

MuSpy.com

MetalTabs.com logo

Bands

0-9

A

B

C

D

E

F

G

H

I

J

K

L

M

N

O

P

Q

R

S

T

U

V

W

X

Y

Z

Search

What

Where
 

Burzum - "Inn i slottet fra droemmen" Bass Tab

Plain Text Version
More Burzum Tabs

Hits: 4459
Rated: 4.00 out of 5 (1 vote)
Updated: 2005-11-24 06:07:34

 

By:

sendpm.gif

email.gif

Important note
This tab is available online because we obtained explicit permission from Burzum or their label.


#----------------------------------PLEASE NOTE---------------------------------#
#This file is the author's own work and represents their interpretation of the #
#song. You may only use this file for private study, scholarship, or research. #
#Unless specified otherwise, this is NOT an official tab from the band members.#
#------------------------------------------------------------------------------#

  Visit MetalTabs.com for more metal tablature
  
Artist: BURZUM
Song: INN I SLOTTET FRA DROEMMEN
Album: HVIS LYSET TAR OSS

MISANTHROPY RECORDS 1993/1994
tabbed with the aid of my band
E-MAIL FOR CORRECTIONS TO:INFERNUS8787@HOTMAIL.COM

Riff 1: fast picking (0:00),(1:36),(1:50),(2:05),(2:20), (2:27)
----------------------------------|
----------------------------------|
----------------------------------|
--0-3-0-3-0-3-0-3-0-3-0-3-0-3-0-3-|

Riff 2: (1:29), (1:43),(1:58),(2:13),
----------------------------------|
----------------------------------|
----------------------------------|
--77777777777777--8888------------|

Play riff 1 (2:27)till (3:15),,,then play riff 3

Riff 3:
----------------------------------|
----------------------------------|
----------------------------------|
-88888888888-5555555555-----------|

Riff 4: (3:43)
----------------------------------|
----------------------------------|
--7-------0-2-3-2-5---------------|
----------------------------------|

Riff 5:(4:04)
------------------|
------------------|
--6-6-6-6-5-5-----|
------------------|

repeat riff 4 x4
repeat riff 5 x4

guitar only

repeat riff 5 x4

Riff 6: (5:35)
----------------------------------------------|
----------------------------------------------|
------7-3-3-------7-3-3-----7-3-3-------------|
--000--------000--------000--------000(2323232??)-|

Riff 7:(5:56)
----------------------------------------------|
----------------------------------------------|*?? wrong,,,??
-------------------------------------------333|
--000-2323232-8-7-5-7-000-(2323232??)-0000-111----|

repeat riff 6 with keyboard,,,,,
repeat riff 7 with guitar till end

sorry if it is wrong.send me an email.merci

  Visit MetalTabs.com for more metal tablature

bottom separator

Contact Us | Privacy Policy | Disclaimer | Legal Notice
Copyright © 2001-2014 MetalTabs.com. All Rights Reserved.