top separator

Home

Forum

FAQ

Contact Us

Link to Us

MetalTabs.com logo

Bands

0-9

A

B

C

D

E

F

G

H

I

J

K

L

M

N

O

P

Q

R

S

T

U

V

W

X

Y

Z

Cradle of Filth - "Nymphetamine (Overdose)" Guitar Tab

Plain Text Version
More Cradle of Filth Tabs

Hits: 5107
Rated: 2.33 out of 5 (3 votes)
Updated: 2005-11-24 05:42:30

By:


#----------------------------------PLEASE NOTE---------------------------------#
#This file is the author's own work and represents their interpretation of the #
#song. You may only use this file for private study, scholarship, or research. #
#Unless specified otherwise, this is NOT an official tab from the band members.#
#------------------------------------------------------------------------------#

  Visit MetalTabs.com for more metal tablature
  
Band: Cradle of Filth
Album: Nymphetamine
 Song: Nymphetamine (Overdose)

Copyright (c) Roadrunner records - 2004

Transcribed By: Ariel Venner
Email: metal_kid606@hotmail.com

/=slide up              ~~~=tremolo(or vigorous bends with finger)
\=slide down           PM..=palm mute


Tab for SEVEN STRING GUITAR [but a six string works as well, you just cant use
The high E which isnít used in my version of the song]

DROP A TUNING

Time signature: ĺ

*** Use the bridge pickups unless you are told not too ***

fig. 1 gtrs. 1&2
E -----------------------
B -----------------------
G -----------------------
D -------------6--3------
A -3-----6-----6--3--3---
E -3-----6-----4--1--3---
A -3-----6-----------3---

fig. 2 gtr. 1
E ----------------------------------------------------------------------------
B ----------------------------------------------------------------------------
G ----------------------------------------------------------------------------
D -13-12-13----13-12-13-12-13----13-12-13-12-13----13-12-13-12-13----13-12-13-
A ----------15----------------15----------------13----------------13----------
E ----------------------------------------------------------------------------
A ----------------------------------------------------------------------------

fig. 2 cont...
E -----------------------------------------------------------------------
B -----------------------------------------------------------------------
G -----------------------------------------------------------------------
D -12-13----13-12-13-12-13----13-12-13-12-13----13-12-13-12-13-15-13-12--
A -------11----------------11----------------10--------------------------
E -----------------------------------------------------------------------
A -----------------------------------------------------------------------

fig. 2 Gtr. 2 [Harmony]
E ----------------------------------------------------------------------------
B ----------------------------------------------------------------------------
G -12-10-12----12-10-12-10-12----12-10-12-10-12----12-10-12-10-12----12-10-12-
D ----------13----------------13----------------12----------------12----------
A ----------------------------------------------------------------------------
E ----------------------------------------------------------------------------
A ----------------------------------------------------------------------------

fig. 2 cont...
E -----------------------------------------------------------------------
B -----------------------------------------------------------------------
G -10-12----12-10-12-10-12----12-10-12-10-12----12-10-12-10-12-13-12-10--
D -------10----------------10----------------10--------------------------
A -----------------------------------------------------------------------
E -----------------------------------------------------------------------
A -----------------------------------------------------------------------

fig. 3 gtrs. 1 & 2 (first half of chorus)
E -------------------------------------------------------------------------
B -------------------------------------------------------------------------
G -------------------------------------------------------------------------
D -5-5-5-5-5-5-3-3-3-3-3-3-5-5-5-5-5-5---------3-3-5-5-5-5-5-5-3-3-3-3-3-3-
A -5-5-5-5-5-5-3-3-3-3-3-3-5-5-5-5-5-5-6-6-6-6-3-3-5-5-5-5-5-5-3-3-3-3-3-3-
E -3-3-3-3-3-3-1-1-1-1-1-1-3-3-3-3-3-3-6-6-6-6-1-1-3-3-3-3-3-3-1-1-1-1-1-1-
A -------------------------------------6-6-6-6-----------------------------
PM ........................................................................

fig. 3 cont...           gtr. 2 (second half of chorus with gtr. 1 solo)
E -------------------------1-------------------------------------------------
B -------------------------1-------------------------------------------------
G -------------------------1-------------------------------------------------
D -------------3-3-3-3-3-3-1-5-5-5-5-5-5-3-3-3-3-3-3-5-5-5-5-5-5-------------
A -6-6-6-6-6-6-3-3-3-3-3-3-1-5-5-5-5-5-5-3-3-3-3-3-3-5-5-5-5-5-5-6-6-6-6-6-6-
E -6-6-6-6-6-6-1-1-1-1-1-1-1-3-3-3-3-3-3-1-1-1-1-1-1-3-3-3-3-3-3-6-6-6-6-6-6-
A -6-6-6-6-6-6-------------1-------------------------------------6-6-6-6-6-6-
PM ........................................................................

fig. 3 cont...
E -------------------------------------------------------------------------
B -------------------------------------------------------------------------
G -------------------------------------------------------------------------
D -5-5-5-5-5-5-3-3-3-3-3-3-5-5-5-5-5-5-------------5-5-5-5-5-5-3-3-3-3-3-3-
A -5-5-5-5-5-5-3-3-3-3-3-3-5-5-5-5-5-5-6-6-6-6-6-6-5-5-5-5-5-5-3-3-3-3-3-3-
E -3-3-3-3-3-3-1-1-1-1-1-1-3-3-3-3-3-3-6-6-6-6-6-6-3-3-3-3-3-3-1-1-1-1-1-1-
A -------------------------------------6-6-6-6-6-6-------------------------
PM........................................................................

fig. 3 cont...
E --------------------------
B --------------------------
G --------------------------
D -------------3-3-3-3-3-3--
A -6-6-6-6-6-6-3-3-3-3-3-3--
E -6-6-6-6-6-6-1-1-1-1-1-1--
A -6-6-6-6-6-6--------------

I am pretty sure that I messed up one or two notes here, but it still works...

fig. 3 gtr. 1 solo/melody bit (use the neck pickups)
E -----------------------------------------------------------------------------
B ----------------------------------------------[------------13/15\-]----------
G -14/-15-\14-14/15\12/15\14~~-----12/14/15\14--[-------------------]-14/-15-\-
D ----------------------------15~~--------------[13-13-13-13--------]----------
A -----------------------------------------------------------------------------
E -----------------------------------------------------------------------------
A -----------------------------------------------------------------------------

fig. 3 cont...
E ---------------------------------------------------------------------
B ---------------------------------------------------------------------
G -14-14/15\12/15\14~~----14/-15-\14-\1212-15/-17-\15\14\1212~~~~~~~~--
D ---------------------------------------------------------------------
A ---------------------------------------------------------------------
E ---------------------------------------------------------------------
A ---------------------------------------------------------------------

Fig. 3 cont... (replace the bracketed area with this riff on the second time)
E -----------------
B -----------------
G -15-/-17-/19~~~--
D -----------------
A -----------------
E -----------------
A -----------------

fig. 4 gtr. 1 & 2
E -----------------------------------------------------------------
B -----------------------------------------------------------------
G -----------7-8-7--8-7-----8-10-8--10-8-7--10/12-13-12--13-12-10--
D -8--/1010-------------10-----------------------------------------
A -----------------------------------------------------------------
E -----------------------------------------------------------------
A -----------------------------------------------------------------

Cont...
E ----------------
B ----------------
G -12-10-8-10-12--
D ----------------
A ----------------
E ----------------
A ----------------

fig. 4 gtr. 2 [Harmony]
E -----------------------------------------------------------------------
B ---------8-9-8--9-8----8-9-8--9-8-6--11-13-11--9-11-13-----------------
G -7--/88-------------8-----------------------------------12-10-8-10-12--
D -----------------------------------------------------------------------
A -----------------------------------------------------------------------
E -----------------------------------------------------------------------
A -----------------------------------------------------------------------

fig. 5 gtrs. 1 & 2
E ------
B ------
G ------
D -8-8--
A -8-8--
E -6-6--
A ------

Fig. 5 gtr. 1   gtr. 2 [At the end of the song hold the last chord]
E -------------1-------------
B -------------1-------------
G -------------1-7--6--------
D -------------1-7--6--8--9--
A -5--4--1--2--1-5--4--8--9--
E -5--4--1--2--1-------6--7--
A -5--4--1--2--1-------------

If you find any problems with this tab, please email me. God Bless...Ariel.

  Visit MetalTabs.com for more metal tablature

bottom separator

Contact Us | Privacy Policy | Disclaimer
Copyright © 2001-2014 MetalTabs.com. All Rights Reserved.