top separator

Home

Forum

What's New

Submit a Tab

FAQ

Links

Contact Us

Link to Us

MetalTabs.com logo

Bands

0-9

A

B

C

D

E

F

G

H

I

J

K

L

M

N

O

P

Q

R

S

T

U

V

W

X

Y

Z

Search

What

Where
 

Enochian Crescent - "Igne Natura Renovatur Integra" Guitar Tab

Plain Text Version
More Enochian Crescent Tabs

Hits: 2342
Updated: 2005-11-24 05:41:35

 

By:

sendpm.gif

email.gif

Important note
This tab is available online because we obtained explicit permission from Enochian Crescent or their label.


#----------------------------------PLEASE NOTE---------------------------------#
#This file is the author's own work and represents their interpretation of the #
#song. You may only use this file for private study, scholarship, or research. #
#Unless specified otherwise, this is NOT an official tab from the band members.#
#------------------------------------------------------------------------------#

  Visit MetalTabs.com for more metal tablature
  
Enochian Crescent - Igne Natura Renovatur Integra
 off the album Omega Telocvovim (c) Avantgarde Records 2000

 Transcribed by J. Cromwood (smoermeliathotmaildotcom)

D tuning, 4/4, ~100bpm

  Intro riff, both guitars
  Mute all d's on d string
d|--------------------------------|--------------------------------|
a*--------------------------------|--------------------------------*
f*--------------------------------|--------------------------------*
c*2---------------7-------5-------|5---------------7---------------*
g|2---------------7-------5-------|3---------------5---------------|
d|0-----------000-5---000-3---000-|3-----------000-5-----------000-|

 |--------------------------------|--------------------------------|
 |--------------------------------|--------------------------------|
 |--------------------------------|----------------2---------------|
 |2---------------7-------5-------|5---------------4---------------|
 |2---------------7-------5-------|3---------------5---------------|
 |0-----------000-5---000-3---000-|3-----------000-----------------|


  Verse riff, both guitars
  Mute all d's on d string, drop out the bracketed part the 2nd time through
d|--------------------------------|--------------------------------|
a|--------------------------------|--------------------------------|
f*--------------------------------|--------------------------------|
c*--------------------------------|--------------------------------|
g|5-7-----7-9-----9-10----5-7-----|5-7---------------------0-2-----|
d|----000-----000-----000-----000-|----000-3-5-000-2-3-000-----000-|

 |--------------------------------|--------------------------------|
 |--------------------------------|--------------------------------|
 |--------------------------------|--------------------------------*
 |--------------------------------|--------------------------------*
 |5-7-----7-9-----9-10----5-7-----|--------0-2-----2-3-----3-5-----|
 |----000-----000-----000-----000-|3-5-000-----000-----000-----[000]


 Break
d|--------------------------------|--------------------------------|
a|--------------------------------|--------------------------------|
f|--------------------------------|--------------------------------|
c|9-------------------------------|--------------------------------|
g|7-------------------------------|--------------------------------|
d|0-------------------------------|--------------------------------|


  Chorus riff, left guitar
d|--------------------------------|--------------------------------|
a*--------------------------------|--------------------------------*
f*--------------------------------|--------------------------------*
c*--------5-----------------------|--------5-----------------------*
g*----7-------7---2---3---0-------|----7-------7---9---10--9-------*
d|0-------------------------------|0-------------------------------|

  Chorus riff, right guitar
d|--------------------------------|--------------------------------|
a*--------------------------------|--------------------------------*
f*--------------------------------|----------------5---4-2-4-5-4---*
c*5-------------------------------|5-------------------------------*
g*--------7-------5--/10--9-------|--------7-----------------------*
d|--------------------------------|--------------------------------|


  Midsection riff, left guitar
d|--------------------------------|--------------------------------|
a|--------------------------------|--------------------------------|
f|-----------------------(2)------|-------(5)-------------(4)------|
c|-------(9)-------------(4)------|-------(7)-------------(5)------|
g|9------(9)------4---------------|7---------------5---------------|
d|7---------------2---------------|5---------------3---------------|

  Midsection riff, right guitar
d|--------------------------------|--------------------------------|
a|--------------------------------|--------------------------------|
f|--------------------------------|--------------------------------|
c|9---------------4---------------|7---------------5---------------|
g|9---------------4---------------|7---------------5---------------|
d|7---------------2---------------|5---------------3---------------|


Structure:

Intro
Verse
Break
Chorus
Intro (don't repeat the first part this time)
Verse
Midsection (eight times)
Chorus (only two repeats without vocals)
Chorus
Odd outro I haven't transcribed yet

 -J. Cromwood, Nov 16th 2005

  Visit MetalTabs.com for more metal tablature

bottom separator

Contact Us | Privacy Policy | Disclaimer | Legal Notice
Copyright © 2001-2014 MetalTabs.com. All Rights Reserved.