top separator

Home

Forum

What's New

Submit a Tab

FAQ

Links

Contact Us

Link to Us

MetalTabs.com logo

Bands

0-9

A

B

C

D

E

F

G

H

I

J

K

L

M

N

O

P

Q

R

S

T

U

V

W

X

Y

Z

Search

What

Where
 

Blood Red Throne - "The Children shall Endure" Guitar Tab

Plain Text Version
More Blood Red Throne Tabs

Hits: 2817
Updated: 2005-11-24 05:40:22

 

By:

dark usurper

sendpm.gif

email.gif

Important note
We did our best to reach Blood Red Throne and ask for their permission to publish this tab. Unfortunately they did not respond to our requests or we could not find a way to contact them. This tab is available online until Blood Red Throne tells us to take it down.


#----------------------------------PLEASE NOTE---------------------------------#
#This file is the author's own work and represents their interpretation of the #
#song. You may only use this file for private study, scholarship, or research. #
#Unless specified otherwise, this is NOT an official tab from the band members.#
#------------------------------------------------------------------------------#

  Visit MetalTabs.com for more metal tablature
  
Band:  Blood Red Throne
Album: Monument of Death
Song:  The Children Shall Endure

Copyright (c)  Hammerheart 2001
Version 1.0 - 08.11.05

Transcribed By: Emil
Email:          emil_metallica@hotmail.com


.  - palm mute           /  - slide up to
\  - slide down to       ~  - vibrato
h  - hammer on           b  - Bend
p  - pull off            Suffixes for bend
t  - tap                 f  - full bend    h - half bend
ph - pinched harmonic    q  - quarter bend t - tap bend
*  - see comment         ^  - Hold bend    r release bend
x  - Stuccatto           ~  - vibrato bend


RIFF 1 (X4)                      RIFF 2 (X4)
|----------------------------------------------------------|
|----------------------------------------------------------|
|----------------------------------------------------------|
|----------------------------------------------------------|
|---------------------------------5--6--5--6--5--6--5------|
|-44441111-4411430000-88444-|------00-00-00-00-00-00-00756-|

 RIFF 3 (X2)
 ----------------------------------------------------------------------------|
 ----------------------------------------------------------------------------|
 ----------------------------------------------------------------------------|
 ----------------------------------------------------------------------------|
 -----------------7-7-7-7--------7-7-7--7---------7-7-7-7---------7-7-7-7----|
 -0-0-0-3210--00-0-0-0-0-7656-00--0-0--0-7656-00-0-0-0-0-7656-00-0-0-0---0654|


|--------------------------------------------------------------------|
|--------------------------------------------------------------------|
|--------------------------------------------------------------------|
|--------------------------------------------------------------------|
|----7-7-7-7----------7-7-7-7--------7-7-7--7----------7-7-7-7-------|
|--00-0-0-0-0-7656-00--0-0--0-7656-00-0-0-0-0-7656-00-0-0-0----0654--|

 ----------------------------------------------------|
 ----------------------------------------------------|
  ---------------------------------------------------|
|----------------------------------------------------|
|---7-6-----7-6--7-6---7-6--7-6--7-6--7-6--7-6-------|
|-00-0--000--0-00-0-000-0-00-0-00-0-00-0-00-0--------|

RIFF 4 (X3)
|--------------------------------------------------------|
|--------------------------------------------------------|
|--------------------------------------------------------|
|--------------------------------------------------------|
|----------7-6-4----------6-5-3----------7-6-4----5--5---|
|0--000-000------0-000-000------0-000-000-----0-00-00----|

Repeat riff 1 (also during solo)
Repeat riff 2


RIFF 5(x3)
|--------------------------------|
|--------------------------------|
|--------------------------------|
|--------------------------------|
|-7--6--7--6--7--6--8--10--------|
|--00-00-00-00-00-00-00----------|

RIFF 6
|------------------------------------------------------------------------|
|------------------------------------------------------------------------|
|------------------------------------------------------------------------|
|------------------------------------------------------------------------|
|------------------------------------------------------------------------|
|-650-6-650-2-650-0-650-6--650-6-650-2-650-6-650-6-6502-650-6--650-6-6502|

Repeat riff 5
,  - slight palm mute    () - ghost note, sustained note
"  - tremolo note        <> - Trill

Tuning D# G# C# F# A# D#

  Visit MetalTabs.com for more metal tablature

bottom separator

Contact Us | Privacy Policy | Disclaimer | Legal Notice
Copyright © 2001-2014 MetalTabs.com. All Rights Reserved.