top separator

Home

Forum

What's New

Submit a Tab

FAQ

Links

Contact Us

Link to Us

MetalTabs.com logo

Bands

0-9

A

B

C

D

E

F

G

H

I

J

K

L

M

N

O

P

Q

R

S

T

U

V

W

X

Y

Z

Search

What

Where
 

Anaal Nathrakh - "Do Not Speak" Guitar Tab

Plain Text Version
More Anaal Nathrakh Tabs

Hits: 5145
Rated: 3.20 out of 5 (5 votes)
Updated: 2005-11-15 07:03:34

 

By:

Sick Steve

sendpm.gif

email.gif

Important note
This tab is available online because we obtained explicit permission from Anaal Nathrakh or their label.


#----------------------------------PLEASE NOTE---------------------------------#
#This file is the author's own work and represents their interpretation of the #
#song. You may only use this file for private study, scholarship, or research. #
#Unless specified otherwise, this is NOT an official tab from the band members.#
#------------------------------------------------------------------------------#

  Visit MetalTabs.com for more metal tablature
  
Band:  Anaal Nathrakh
Album: Domine Non Es Dignus
Song:  Do Not Speak

Tabbed by: Sick Steve

Tuning: Down 1 step


Play x3

                  x3             1                       2
d|-----------------|----------------------------|-----------------|
A|-----------------|----------------------------|-----------------|
F|-----------------|----------------------------|-----------------|
C|-----------------|----------------------------|-----------------|
G|-2222-0-5p00-320-|-/3h6p3h6p3h6\/3h6p3h6p3h6\-|-5-6-5-3-5-3-2-3-|
D|-----------------|----------------------------|-----------------|

Play x4

d|-------------------------|
A|-------------------------|
F|-------------------------|
C|-------------------------|
G|-------------------------|
D|-0"-3"-2"-5"-3"-6"-2"-5"-|
   .  .  .  .  .  .  .  .

Play x4

d|-------------------------|
A|-------------------------|
F|-------------------------|
C|-------------------------|
G|-------------------------|
D|-0"-3"-2"-5"-3"-6"-2"-5"-|

Play x4

d|---------------------|
A|---------------------|
F|---------------------|
C|------------------5"-|
G|-4"-5"---5"4"-5"-----|
D|------3"--------3"---|

Guitar 1

Play x2

d|----------------------------------------------------------|
A|----------------------------------------------------------|
F|---------------5------------------------------------------|
C|-7-------------5-------------3-------------2--------------|
G|-7-------------3-------------3-------------2--------------|
D|-5---------------------------1-------------0--------------|


d|----------------------------------------------------------|
A|----------------------------------------------------------|
F|---------------5---------------------------10-------------|
C|-7-------------5-------------6-------------10-------------|
G|-7-------------3-------------6-------------8--------------|
D|-5---------------------------4----------------------------|

Guitar 2

Play x2
              x2            x2            x2            x2
d|-------------|-------------|-------------|-------------|
A|-------------|-------------|-------------|-------------|
F|-2"----9"----|-5"----9"----|-5"----9"----|-4"----9"----|
C|----2"----2"-|----7"----7"-|----7"----7"-|----5"----5"-|
G|-------------|-------------|-------------|-------------|
D|-------------|-------------|-------------|-------------|


              x2            x2               x2                x2
d|-------------|-------------|----------------|-----------------|
A|-------------|-------------|----------------|-----------------|
F|-2"----5"----|-5"----9"----|-8"-----13"-----|-10"-----14"-----|
C|----2"----2"-|----7"----7"-|----10"-----10"-|-----12"-----12"-|
G|-------------|-------------|----------------|-----------------|
D|-------------|-------------|----------------|-----------------|

Play x2

                  x3             1                       2
d|-----------------|----------------------------|-----------------|
A|-----------------|----------------------------|-----------------|
F|-----------------|----------------------------|-----------------|
C|-----------------|----------------------------|-----------------|
G|-2222-0-5p00-320-|-/3h6p3h6p3h6\/3h6p3h6p3h6\-|-5-6-5-3-5-3-2-3-|
D|-----------------|----------------------------|-----------------|

Play x4

d|-------------------------|
A|-------------------------|
F|-------------------------|
C|-------------------------|
G|-------------------------|
D|-0"-3"-2"-5"-3"-6"-2"-5"-|
   .  .  .  .  .  .  .  .

Play x4

d|-------------------------|
A|-------------------------|
F|-------------------------|
C|-------------------------|
G|-------------------------|
D|-0"-3"-2"-5"-3"-6"-2"-5"-|

Play x4

d|---------------------|
A|---------------------|
F|---------------------|
C|------------------5"-|
G|-4"-5"---5"4"-5"-----|
D|------3"--------3"---|

Guitar 1

Play x2

d|----------------------------------------------------------|
A|----------------------------------------------------------|
F|---------------5------------------------------------------|
C|-7-------------5-------------3-------------2--------------|
G|-7-------------3-------------3-------------2--------------|
D|-5---------------------------1-------------0--------------|


d|----------------------------------------------------------|
A|----------------------------------------------------------|
F|---------------5---------------------------10-------------|
C|-7-------------5-------------6-------------10-------------|
G|-7-------------3-------------6-------------8--------------|
D|-5---------------------------4----------------------------|

Guitar 2

Play x2
              x2            x2            x2            x2
d|-------------|-------------|-------------|-------------|
A|-------------|-------------|-------------|-------------|
F|-2"----9"----|-5"----9"----|-5"----9"----|-4"----9"----|
C|----2"----2"-|----7"----7"-|----7"----7"-|----5"----5"-|
G|-------------|-------------|-------------|-------------|
D|-------------|-------------|-------------|-------------|


              x2            x2               x2                x2
d|-------------|-------------|----------------|-----------------|
A|-------------|-------------|----------------|-----------------|
F|-2"----5"----|-5"----9"----|-8"-----13"-----|-10"-----14"-----|
C|----2"----2"-|----7"----7"-|----10"-----10"-|-----12"-----12"-|
G|-------------|-------------|----------------|-----------------|
D|-------------|-------------|----------------|-----------------|

Guitar 1

Play x4

d|---------------------------------------------------------|
A|---------------------------------------------------------|
F|-------------------------------7-------------------------|
C|-5--------------7--------------7-------------------------|
G|-5--------------7--------------5-------------------------|
D|-3--------------5----------------------------------------|

Guitar 2

Play x4

d|---------------------------------------------------------|
A|---------------------------------------------------------|
F|---------------------------------------------------------|
C|------12"-------12"--10"------------7"------------7"-----|
G|-10"------13"-------------12"---8"------5"----8"------5"-|
D|---------------------------------------------------------|

Repeat until end

d|-------------------------|
A|-------------------------|
F|-----------/10-10--10-10-|
C|-----------/9--9---9--9--|
G|-----------/8--8---8--8--|
D|-1p0001p000--------------|
   . .... ...


 | /  slide up
 | \  slide down
 | h  hammer on
 | p  pull off
 | b  bend
 | r  release
 | ~  vibrato
 | +  harmonic
 | .  palm mute
 | "  trem pick
 | <  volume swell

Any comments or suggestions email: saltmakesmecough@yahoo.co.uk
===============================================================

  Visit MetalTabs.com for more metal tablature

bottom separator

Contact Us | Privacy Policy | Disclaimer | Legal Notice
Copyright © 2001-2014 MetalTabs.com. All Rights Reserved.