top separator

Home

Forum

What's New

Submit a Tab

FAQ

Links

Contact Us

Link to Us

MuSpy.com

MetalTabs.com logo

Bands

0-9

A

B

C

D

E

F

G

H

I

J

K

L

M

N

O

P

Q

R

S

T

U

V

W

X

Y

Z

Search

What

Where
 

October Tide - "To Die From Strength" Guitar Tab

Plain Text Version
More October Tide Tabs

Hits: 2471
Rated: 4.00 out of 5 (2 votes)
Updated: 2005-11-15 07:03:07

 

By:

Kalmahswamp

sendpm.gif

email.gif

Important note
This tab is available online because we obtained explicit permission from October Tide or their label.


#----------------------------------PLEASE NOTE---------------------------------#
#This file is the author's own work and represents their interpretation of the #
#song. You may only use this file for private study, scholarship, or research. #
#Unless specified otherwise, this is NOT an official tab from the band members.#
#------------------------------------------------------------------------------#

  Visit MetalTabs.com for more metal tablature
  
Band:  October Tide
Album: Promo Tape
Song:  To Die From Strength

Copyright: October Tide

Transcribed By: Paul Sullivan

h- Hammer on
p- Pull off
/- slide up
(#)- Palm Mute
[#]- Trem Pick

Tuning D A D G B E

Part 1
E----------------------------------------------------------------------------
B-7--7--7--7---------------------------7--7--7--7----------------------------
G-11-10-11-10---8---8---8---8---8---8--11-10-11-10---8---8---8---8----8----8-
D-------------9---9---8---8---8---8----------------9---9---8---8-------------
A------------------------------------------------------------------11---11---
D----------------------------------------------------------------------------

E------------------------------------------------------------------------------|
B-7--7--7--7---------------------------7--7--7--7------------------------------|
G-11-10-11-10---8---8---8---8---8---8--11-10-11-10---8---8---8---8----11----11-|
D-------------9---9---8---8---8---8----------------9---9---8---8---11----11----|
A------------------------------------------------------------------------------|
D------------------------------------------------------------------------------|

Part 2
E-----------------------------|
B-----------------------------|
G-----------------------------|
D-----------------------------|
A-----2-1---------------------|
D-0-5-----1-1-1-1-1-1-1-------|

Part 3 (rythem)
E---------------------------------|
B---------------------------------|
G---------------------------------|
D---------------------------------|
A-6-6-6-6/9-9-9-9/13-13-13-13-----|
D-6-6-6-6/9-9-9-9/13-13-13-13-----|

Part 3 (lead)
E---------------------------------|
B---------------------------------|
G-----------------6/8-8-----------|
D-8-8-------------6/8-8-----------|
A-----11-9h11p9-6-----------------|
D---------------------------------|

Part 4 (rythem chords)
E-------------------------------|
B-------------------------------|
G-------------------------------|
D-------------------------------|
A-6-6---4---2---4---6-6---------|
D-6-6---4---2---4---6-6---------|

Part 4 (lead)
E------------------------------------------|
B------------------------------------------|
G-8-9-8-6-6h8---6---------6----------------|
D-------------9---8-6-8-9---9-8------------|
A------------------------------------------|
D------------------------------------------|

Part 5
E------------------------------------------------------------------------------|
B------------------------------------------------------------------------------|
G------------------------------------------------------------------------------|
D-----------6---6---6-6---6---6---------------6---6---6---9-8h9p8p6h8----------|
A---6---6---------------6---6---6-----6---6---------6---6----------------------|
D-6---6---6---6---6-----------------6---6---6---6------------------------------|

Part 6 (rythem)
E--------------------------------------|
B--------------------------------------|
G--------------------------------------|
D--------------------------------------|
A-1---9---6----------------------------|
D-1---9---6----------------------------|

Part 6 (lead)
E-------------------------------------------------------------------|
B----------------------------------------7-7/9-10-10----------------|
G-------8----------------------8------------------------------------|
D-----8---9-8h9p8-6----------8---9-8h9p8----------------------------|
A-4/6---------------9-8-9--6----------------------------------------|
D-------------------------------------------------------------------|

Part 7 (rythem)
E-------------------------------------------------|
B-------------------------------------------------|
G-------------------------------------------------|
D-------------------------------------------------|
A-------------4-4-4--------------1-1-1------------|
D-(6)-(6)-(6)-4-4-4--(2)-(2)-(2)-1-1-1------------|

Part 7 (lead)
E---------------------------------------------------|
B---------------------------------------------------|
G-----6---------------------------------------------|
D---6---8-8-8h9p8----5-7-4-4-4h5p4------------------|
A-9----------------7--------------------------------|
D---------------------------------------------------|

Clean part: (capo if necessary)
E-----------------------------------------------
B---4---4---------4---4-------------------------
G-----3---3---------3---3-----------------------
D-------------2-2-----------2-2-----------------
A-6---------6-------------6---------------------
D-----------------------------------------------

E---------------------------------------------------------------6-------------4-
B-----4---4---4-----4---4---4-----4---4---4-----4---4---4-----4---4---4-----4---
G---4---4---4-----4---4---4-----4---4---4-----4---4---4-----4-------4-----4-----
D---------------4-------------6---------------------------4-------------6-------
A-6-----------------------------------------6-----------------------------------
D-------------------------------------------------------------------------------

E----------|
B-4---4----|
G---4------|
D----------|
A----------|
D----------|

Part 8: (rythem)
E---------------------------------------------|
B---------------------------------------------|
G-----3-1h31----------------------------------|
D---1--------[4]-[3]-[1]----------------------|
A---------------------------------------------|
D-1-------------------------------------------|

Part 8 (lead)
E-------------------------------------------------|
B-------------------------------------------------|
G-4-3-1-------------------------------------------|
D-------4-3-1-------[6]-[4]-[3]-------------------|
A-------------------------------------------------|
D-------------------------------------------------|

Part 9
E------------------------------------------|
B---------2h4p2----------------------------|
G---1h3p1----------------------------------|
D-4-------------4-3-1----------------------|
A-6-------------6-4-2----------------------|
D------------------------------------------|

Part 10 (rythem)
E----------------------------|
B----------------------------|
G----------------------------|
D--------6-------------------|
A-1--------------------------|
D-1--------------------------|

Part 10 (lead)
E--------------------------------------|
B--------------------------------------|
G--------------------------------------|
D-8h9p8-6------------------------------|
A---------9-8-9------------------------|
D--------------------------------------|

Part 11 (rythem chords)
E--------------------------------|
B--------------------------------|
G--------------------------------|
D--------------------------------|
A-1--4---6-----------------------|
D-1--4---6-----------------------|

Part 11 (lead)
E----------9-11-9----------------9-11--------------------------------9-11-9--
B-----------------12-11---------------12-11----------9-11-9------------------
G----10-11-----------------10-11---------------10-11--------11-10------------
D-13--------------------13------------------11--------------------13---------
A----------------------------------------------------------------------------
D----------------------------------------------------------------------------

E-------------------|
B-12-11-9-11--------|
G-------------------|
D-------------------|
A-------------------|
D-------------------|

Part 1+2

Part 3

  Visit MetalTabs.com for more metal tablature

bottom separator

Contact Us | Privacy Policy | Disclaimer | Legal Notice
Copyright © 2001-2014 MetalTabs.com. All Rights Reserved.