#----------------------------------PLEASE NOTE---------------------------------#
#This file is the author's own work and represents their interpretation of the #
#song. You may only use this file for private study, scholarship, or research. #
#Unless specified otherwise, this is NOT an official tab from the band members.#
#------------------------------------------------------------------------------#

  Visit MetalTabs.com for more metal tablature
  
Band:  Riger
Album: Des Blutes Stimme
Song:  Auf die Ahnen

Recording Label: CCP Records


Transcribed By: crok
Email:          crok1@gmx.de


.  - palm mute           /  - slide up to
\  - slide down to       ~  - vibrato
h  - hammer on           b  - Bend
p  - pull off            Suffixes for bend
t  - tap                 f  - full bend    h - half bend
ph - pinched harmonic    q  - quarter bend t - tap bend
*  - see comment         ^  - Hold bend    r release bend
x  - Stuccatto           ~  - vibrato bend
,  - slight palm mute    () - ghost note, sustained note
"  - tremolo note        <> - Trill

Tuning E A D G

At 00:13         Riff 1
|--------------|--------------------------|
|--------------|--------------------------|
|--------------|-5-5----------------------|     x 4     STOP
|-------3--5---|-----5-5-8-8-0h3-3--------|


Riff 1
|-----------------------------------------|
|-----------------------------------------|
|--5-5------------------------------------|     x 8
|------5-5-8-8-0h3-3----------------------|

Riff 2
|-----------------------------------------|
|-----------------------------------------|
|--5-5-8-8-------------5-5-8-8------------|     x 2
|------------6-6ó-5-5-----------6-6-8-----|

Riff 1 x 4      STOP

Riff 3
|-------------------------------------------|
|-------------------------------------------|
|-5-5-5-5-5-5-------------------------------| x 4
|-------------5-5-5-5-5-5-8-8-8-8-8-8--0--3-|

Riff 4
|---------------------------------------------|
|---------------------------------------------|
|-5-5-5-5-5-5---------------------------------| x 4
|-------------5-5-5-5-5-5-8-8-8-8-8-8-0-0-3-3-|

Riff 5
|-----------------------------------------|
|-----------------------------------------|             (on the 4th you donít
|--555588888---------55558888-------------|     x 4      play the last 3 notes
|-----------66665555----------66666-8888--|                     and STOP)



Riff 1 x 8

Riff 2 x 2

Only acoustic guitar

At 03:12 slow part with acoustic guitar
|---------------------------------------|
|---------------------------------------|
|---5--8--------------------------------|       x 4
|---------5--8--------------------------|

Riff 1 x 8      STOP

Riff 1 x 4

Riff 5 x 4

Riff 3 x 4

Riff 4 x 4

End
|-----------|
|-----------|
|---5-------|
|-----------|

  Visit MetalTabs.com for more metal tablature