top separator

Home

Forum

What's New

Submit a Tab

FAQ

Links

Contact Us

Link to Us

MuSpy.com

MetalTabs.com logo

Bands

0-9

A

B

C

D

E

F

G

H

I

J

K

L

M

N

O

P

Q

R

S

T

U

V

W

X

Y

Z

Search

What

Where
 

Holy Terror - "Debt Of Pain" Guitar Tab

Plain Text Version
More Holy Terror Tabs

Hits: 3846
Updated: 2005-11-15 06:55:03

 

By:

MetalThrashingMad

sendpm.gif

email.gif

Important note
This tab is available online because we obtained explicit permission from Holy Terror or their label.


#----------------------------------PLEASE NOTE---------------------------------#
#This file is the author's own work and represents their interpretation of the #
#song. You may only use this file for private study, scholarship, or research. #
#Unless specified otherwise, this is NOT an official tab from the band members.#
#------------------------------------------------------------------------------#

  Visit MetalTabs.com for more metal tablature
  
DEBT OF PAIN
                           As recorded by Holy Terror
                         (From the 1988 Album MIND WARS)
                        Copyright (c) 1988 Under One Flag


Arranged by Holy Terror
Transcribed by Steve Rubaszek
Version - 1.0 - November 4, 2005

Gtr I (E A D G B E) - 'Untitled'
Gtr II (E A D G B E) - 'Untitled'

 Intro
  Q=235
 4/4
  Gtrs I, II
  PM----------------------------------------------|
|---------------------------------|-----------------------|
|---------------------------------|-----------------------|
|---------------------------------|-----------------------|
|-0-0-0-2-2-2-2-2-0-0-2-2-2-2-2-2-|-0-0-2-2-2-2-2-2-5--5--|
|---------------------------------|-----------------3--3--|
|---------------------------------|-----------------------|


  PM----------------------------------------------|
|---------------------------------|-------------------------|
|---------------------------------|-------------------------|
|---------------------------------|-------------------------|
|-0-0-2-2-2-2-0-0-2-2-2-2-0-0-2-2-|-0-0-2-2-2-2-2-2-4--5----|
|---------------------------------|-----------------2--3----|
|---------------------------------|-------------------------|


  Gtr I
  PM----------------------------------------------|
|---------------------------------|-----------------------|
|---------------------------------|-----------------------|
|---------------------------------|-----------------------|
|-0-0-2-2-2-2-2-2-0-0-2-2-2-2-2-2-|-0-0-2-2-2-2-2-2-5--5--|
|---------------------------------|-----------------3--3--|
|---------------------------------|-----------------------|
|
| Gtr II
| PM----------------------------------------------|
|---------------------------------|-----------------------|
|---------------------------------|-----------------------|
|---------------------------------|-----------------------|
|-0-0-2-2-2-2-2-2-0-0-2-2-2-2-2-2-|-0-0-2-2-2-2-2-2-5--5--|
|---------------------------------|-----------------3--3--|
|---------------------------------|-----------------------|


|----------------------------------|
|----------------------------------|
|----------------------------------|
|-5-5-5-5-5-5-4-4-5-5-4-4-5-5-5-5--|
|----------------------------------|
|----------------------------------|
|
| PM----------------------------|
|----------------------------------|
|----------------------------------|
|----------------------------------|
|-2-2-2-2-2-2-0-0-2-2-0-0-2-2-2-2--|
|----------------------------------|
|----------------------------------|


  Gtrs I, II
|-----------------------------|-----------------------------------|
|-----------------------------|-----------------------------------|
|-----------------------------|-----------------------------------|
|--------7-9-10--------7-9-10-|---------10-12-14---------10-12-14-|
|-7-9-10--------7-9-10--------|-9-10-12----------9-10-12----------|
|-----------------------------|-----------------------------------|


|------------------------------------|
|------------------------------------|
|---------11-12-14---------11-12-14--|
|-9-10-12----------9-10-12-----------|
|------------------------------------|
|------------------------------------|


  Gtrs I, II
|-----------------------------------|
|-13-12-10---------13-12-10---------|
|----------12-11-9----------12-11-9-|
|-----------------------------------|
|-----------------------------------|
|-----------------------------------|


|-------------------------------|------------------------------|
|-------------------------------|------------------------------|
|-12-11-9--------12-11-9--------|------------------------------|
|---------10-9-7---------10-9-7-|-10-9-7--------10-9-7---------|
|-------------------------------|--------10-9-7--------10-9-7--|
|-------------------------------|------------------------------|


|----------|--------|
|----------|--------|
|----------|--------|
|----------|--------|
|-2--------|-(2)----|
|-0--------|-(0)----|


  Gtrs I, II
  PM----------------------------------------------|
|---------------------------------|-----------------------|
|---------------------------------|-----------------------|
|---------------------------------|-----------------------|
|-0-0-0-2-2-2-2-2-0-0-2-2-2-2-2-2-|-0-0-2-2-2-2-2-2-5--5--|
|---------------------------------|-----------------3--3--|
|---------------------------------|-----------------------|


  PM----------------------------------------------|
|---------------------------------|-----------------------|
|---------------------------------|-----------------------|
|---------------------------------|-----------------------|
|-0-0-2-2-2-2-0-0-2-2-2-2-0-0-2-2-|-0-0-2-2-2-2-2-2-4--5--|
|---------------------------------|-----------------2--3--|
|---------------------------------|-----------------------|


  Gtr I
  PM----------------------------------------------|
|---------------------------------|-----------------------|
|---------------------------------|-----------------------|
|---------------------------------|-----------------------|
|-0-0-2-2-2-2-2-2-0-0-2-2-2-2-2-2-|-0-0-2-2-2-2-2-2-5--5--|
|---------------------------------|-----------------3--3--|
|---------------------------------|-----------------------|
|
| Gtr II
| PM----------------------------------------------|
|---------------------------------|-----------------------|
|---------------------------------|-----------------------|
|---------------------------------|-----------------------|
|-0-0-2-2-2-2-2-2-0-0-2-2-2-2-2-2-|-0-0-2-2-2-2-2-2-5--5--|
|---------------------------------|-----------------3--3--|
|---------------------------------|-----------------------|


|---------------------------------|-----------------------|
|---------------------------------|-----------------------|
|-4-4-4-4-4-4-4-4-4-4-4-4-4-4-4-4-|-4-4-4-4-4-4-4-4-4--5--|
|---------------------------------|-----------------------|
|---------------------------------|-----------------------|
|---------------------------------|-----------------------|
|
| PM----------------------------------------------|
|---------------------------------|-----------------------|
|---------------------------------|-----------------------|
|---------------------------------|-----------------------|
|-0-0-2-2-2-2-0-0-2-2-2-2-0-0-2-2-|-0-0-2-2-2-2-2-2-4--5--|
|---------------------------------|-----------------2--3--|
|---------------------------------|-----------------------|


   Verse
    Gtrs I, II
    PM----------------------------------------------|
||----------------------------------|-----------------------|
||o---------------------------------|-----------------------|
||----------------------------------|-----------------------|
||--0-0-0-2-2-2-2-2-0-0-2-2-2-2-2-2-|-0-0-2-2-2-2-2-2-5--5--|
||o---------------------------------|-----------------3--3--|
||----------------------------------|-----------------------|


  PM----------------------------------------------|
|---------------------------------|-------------------------|
|---------------------------------|-------------------------|
|---------------------------------|-------------------------|
|-0-0-2-2-2-2-0-0-2-2-2-2-0-0-2-2-|-0-0-2-2-2-2-2-2-4--5----|
|---------------------------------|-----------------2--3----|
|---------------------------------|-------------------------|


  Gtr I
  PM----------------------------------------------|
|---------------------------------|-----------------------|
|---------------------------------|-----------------------|
|---------------------------------|-----------------------|
|-0-0-2-2-2-2-2-2-0-0-2-2-2-2-2-2-|-0-0-2-2-2-2-2-2-5--5--|
|---------------------------------|-----------------3--3--|
|---------------------------------|-----------------------|
|
| Gtr II
| PM----------------------------------------------|
|---------------------------------|-----------------------|
|---------------------------------|-----------------------|
|---------------------------------|-----------------------|
|-0-0-2-2-2-2-2-2-0-0-2-2-2-2-2-2-|-0-0-2-2-2-2-2-2-5--5--|
|---------------------------------|-----------------3--3--|
|---------------------------------|-----------------------|


|---------------------------------|------------------------||
|---------------------------------|-----------------------o||
|-4-4-4-4-4-4-4-4-4-4-4-4-4-4-4-4-|-4-4-4-4-4-4-4-4--------||
|---------------------------------|-----------------4--5---||
|---------------------------------|-----------------2--3--o||
|---------------------------------|------------------------||
|
| PM----------------------------------------------|
|---------------------------------|------------------------||
|---------------------------------|-----------------------o||
|---------------------------------|------------------------||
|-0-0-2-2-2-2-0-0-2-2-2-2-0-0-2-2-|-0-0-2-2-2-2-2-2-4--5---||
|---------------------------------|-----------------2--3--o||
|---------------------------------|------------------------||


   Chorus
||----------------|-----------|---------------|------------||
||o---------------|-----------|---------------|-----------o||
||-------11-11----|-----------|------11-11----|------------||
||--11---11-11----|-9----7----|-11---11-11----|-9----7-----||
||o--9----9--9----|-7----5----|--9----9--9----|-7----5----o||
||----------------|-----------|---------------|------------||


   Verse
    PM----------------------------------------------|
||----------------------------------|-----------------------|
||o---------------------------------|-----------------------|
||----------------------------------|-----------------------|
||--0-0-0-2-2-2-2-2-0-0-2-2-2-2-2-2-|-0-0-2-2-2-2-2-2-5--5--|
||o---------------------------------|-----------------3--3--|
||----------------------------------|-----------------------|


  PM----------------------------------------------|
|---------------------------------|-------------------------|
|---------------------------------|-------------------------|
|---------------------------------|-------------------------|
|-0-0-2-2-2-2-0-0-2-2-2-2-0-0-2-2-|-0-0-2-2-2-2-2-2-4--5----|
|---------------------------------|-----------------2--3----|
|---------------------------------|-------------------------|


  Gtr I
  PM----------------------------------------------|
|---------------------------------|-----------------------|
|---------------------------------|-----------------------|
|---------------------------------|-----------------------|
|-0-0-2-2-2-2-2-2-0-0-2-2-2-2-2-2-|-0-0-2-2-2-2-2-2-5--5--|
|---------------------------------|-----------------3--3--|
|---------------------------------|-----------------------|
|
| Gtr II
| PM----------------------------------------------|
|---------------------------------|-----------------------|
|---------------------------------|-----------------------|
|---------------------------------|-----------------------|
|-0-0-2-2-2-2-2-2-0-0-2-2-2-2-2-2-|-0-0-2-2-2-2-2-2-5--5--|
|---------------------------------|-----------------3--3--|
|---------------------------------|-----------------------|


|---------------------------------|------------------------||
|---------------------------------|-----------------------o||
|---------------------------------|------------------------||
|-4-4-4-4-4-4-4-4-4-4-4-4-4-4-4-4-|-4-4-4-4-4-4-4-4-4--5---||
|---------------------------------|-----------------2--3--o||
|---------------------------------|------------------------||
|
| PM----------------------------------------------|
|---------------------------------|------------------------||
|---------------------------------|-----------------------o||
|---------------------------------|------------------------||
|-0-0-2-2-2-2-0-0-2-2-2-2-0-0-2-2-|-0-0-2-2-2-2-2-2-4--5---||
|---------------------------------|-----------------2--3--o||
|---------------------------------|------------------------||


 Chorus
  Gtrs I, II
|---------------|-----------|---------------|-----------|
|---------------|-----------|---------------|-----------|
|------11-11----|-----------|------11-11----|-----------|
|-11---11-11----|-9----7----|-11---11-11----|-9----7----|
|--9----9--9----|-7----5----|--9----9--9----|-7----5----|
|---------------|-----------|---------------|-----------|


                             6/4
|---------------|-----------|---------------------|
|---------------|-----------|---------------------|
|------11-11----|-----------|------11-11----------|
|-11---11-11----|-9----7----|-11---11-11----7--7--|
|--9----9--9----|-7----5----|--9----9--9----5--5--|
|---------------|-----------|---------------------|


 4/4
|-----------------------------|-------------|-------------|
|-----------------------------|-------------|-------------|
|-----------------------------|-------------|-------------|
|--------7-9-10--------7-9-10-|-9--9--5--5--|-7--7--------|
|-7-9-10--------7-9-10--------|-7--7--3--3--|-5--5--7--7--|
|-----------------------------|-------------|-------5--5--|


  PM-------------------------------
|---------------------------------|
|---------------------------------|
|---------------------------------|
|-0-0-2-2-2-2-2-2-0-0-2-2-2-2-2-2-|
|---------------------------------|
|---------------------------------|


 -------------------------------|
|---------------------------------|-------------|---------------|
|---------------------------------|-------------|---------------|
|---------------------------------|-------------|---------------|
|-0-0-2-2-2-2-2-2-0-0-2-2-2-2-2-2-|-9--9--5--5--|-7--7----------|
|---------------------------------|-7--7--3--3--|-5--5--7--7----|
|---------------------------------|-------------|-------5--5----|


 Verse
  PM----------------------------------------------|
|---------------------------------|-----------------------|
|---------------------------------|-----------------------|
|---------------------------------|-----------------------|
|-0-0-0-2-2-2-2-2-0-0-2-2-2-2-2-2-|-0-0-2-2-2-2-2-2-5--5--|
|---------------------------------|-----------------3--3--|
|---------------------------------|-----------------------|


  PM----------------------------------------------|
|---------------------------------|-----------------------|
|---------------------------------|-----------------------|
|---------------------------------|-----------------------|
|-0-0-2-2-2-2-0-0-2-2-2-2-0-0-2-2-|-0-0-2-2-2-2-2-2-4--5--|
|---------------------------------|-----------------2--3--|
|---------------------------------|-----------------------|


  Gtr I
  PM----------------------------------------------|
|---------------------------------|-----------------------|
|---------------------------------|-----------------------|
|---------------------------------|-----------------------|
|-0-0-2-2-2-2-2-2-0-0-2-2-2-2-2-2-|-0-0-2-2-2-2-2-2-5--5--|
|---------------------------------|-----------------3--3--|
|---------------------------------|-----------------------|
|
| Gtr II
| PM----------------------------------------------|
|---------------------------------|-----------------------|
|---------------------------------|-----------------------|
|---------------------------------|-----------------------|
|-0-0-2-2-2-2-2-2-0-0-2-2-2-2-2-2-|-0-0-2-2-2-2-2-2-5--5--|
|---------------------------------|-----------------3--3--|
|---------------------------------|-----------------------|


|---------------------------------|-----------------------|
|---------------------------------|-----------------------|
|---------------------------------|-----------------------|
|-4-4-4-4-4-4-4-4-4-4-4-4-4-4-4-4-|-4-4-4-4-4-4-4-4-4--5--|
|---------------------------------|-----------------2--3--|
|---------------------------------|-----------------------|
|
| PM----------------------------------------------|
|---------------------------------|-----------------------|
|---------------------------------|-----------------------|
|---------------------------------|-----------------------|
|-2-2-2-2-2-2-0-0-2-2-2-2-2-2-2-2-|-2-2-2-2-2-2-2-2-4--5--|
|---------------------------------|-----------------2--3--|
|---------------------------------|-----------------------|


  Gtrs I, II
                              PM-------------------------------
|-------------|-------------|---------------------------------|
|-------------|-------------|---------------------------------|
|-------------|-------------|---------------------------------|
|-9--9--5--5--|-7--7--------|-0-0-2-2-2-2-2-2-0-0-2-2-2-2-2-2-|
|-7--7--3--3--|-5--5--7--7--|---------------------------------|
|-------------|-------5--5--|---------------------------------|


 -------------------------------|
|---------------------------------|-------------|---------------|
|---------------------------------|-------------|---------------|
|---------------------------------|-------------|---------------|
|-0-0-2-2-2-2-2-2-0-0-2-2-2-2-2-2-|-9--9--5--5--|-7--7----------|
|---------------------------------|-7--7--3--3--|-5--5--7--7----|
|---------------------------------|-------------|-------5--5----|


  PM----------------------------------------------|
|---------------------------------|-----------------------|
|---------------------------------|-----------------------|
|---------------------------------|-----------------------|
|-0-0-0-2-2-2-2-2-0-0-2-2-2-2-2-2-|-0-0-2-2-2-2-2-2-5--5--|
|---------------------------------|-----------------3--3--|
|---------------------------------|-----------------------|


  PM----------------------------------------------|
|---------------------------------|-----------------------|
|---------------------------------|-----------------------|
|---------------------------------|-----------------------|
|-0-0-2-2-2-2-0-0-2-2-2-2-0-0-2-2-|-0-0-2-2-2-2-2-2-4--5--|
|---------------------------------|-----------------2--3--|
|---------------------------------|-----------------------|


  Gtr I
  PM----------------------------------------------|
|---------------------------------|-----------------------|
|---------------------------------|-----------------------|
|---------------------------------|-----------------------|
|-0-0-2-2-2-2-2-2-0-0-2-2-2-2-2-2-|-0-0-2-2-2-2-2-2-5--5--|
|---------------------------------|-----------------3--3--|
|---------------------------------|-----------------------|
|
| Gtr II
| PM----------------------------------------------|
|---------------------------------|-----------------------|
|---------------------------------|-----------------------|
|---------------------------------|-----------------------|
|-0-0-2-2-2-2-2-2-0-0-2-2-2-2-2-2-|-0-0-2-2-2-2-2-2-5--5--|
|---------------------------------|-----------------3--3--|
|---------------------------------|-----------------------|


|---------------------------------|-----------------------|
|---------------------------------|-----------------------|
|-4-4-4-4-4-4-4-4-4-4-4-4-4-4-4-4-|-4-4-4-4-4-4-4-4-4--5--|
|---------------------------------|-----------------------|
|---------------------------------|-----------------------|
|---------------------------------|-----------------------|
|
| PM----------------------------------------------|
|---------------------------------|-----------------------|
|---------------------------------|-----------------------|
|---------------------------------|-----------------------|
|-2-2-2-2-2-2-2-2-2-2-2-2-2-2-2-2-|-2-2-2-2-2-2-2-2-4--5--|
|---------------------------------|-----------------2--3--|
|---------------------------------|-----------------------|


    Gtrs I, II
                                                              3x
||----------------------------------|-------------------------||
||o---------------------------------|------------------------o||
||----------------------------------|-------------------------||
||----------------------------------|-------------------------||
||o-2-2-2-2-2-2-2-2-2-2-2-2-2-2-2-2-|-3-3-3-3-3-3-3-3-5p3p2--o||
||----------------------------------|-------------------------||


|---------------------------------|-----------------------|
|---------------------------------|-----------------------|
|---------------------------------|--------------------7--|
|---------------------------------|-----------------7--5--|
|-2-2-2-2-2-2-2-2-2-2-2-2-2-2-2-2-|-3-3-3-3-3-3-3-3-5--3--|
|---------------------------------|-----------------------|


    PM----------------------------------------------|
||----------------------------------|-----------------------|
||o---------------------------------|-----------------------|
||----------------------------------|-----------------------|
||--0-0-0-2-2-2-2-2-0-0-2-2-2-2-2-2-|-0-0-2-2-2-2-2-2-5--5--|
||o---------------------------------|-----------------3--3--|
||----------------------------------|-----------------------|


  PM----------------------------------------------|
|---------------------------------|-------------------------|
|---------------------------------|-------------------------|
|---------------------------------|-------------------------|
|-0-0-2-2-2-2-0-0-2-2-2-2-0-0-2-2-|-0-0-2-2-2-2-2-2-4--5----|
|---------------------------------|-----------------2--3----|
|---------------------------------|-------------------------|


  Gtr I
  PM----------------------------------------------|
|---------------------------------|-----------------------|
|---------------------------------|-----------------------|
|---------------------------------|-----------------------|
|-0-0-2-2-2-2-2-2-0-0-2-2-2-2-2-2-|-0-0-2-2-2-2-2-2-5--5--|
|---------------------------------|-----------------3--3--|
|---------------------------------|-----------------------|
|
| Gtr II
| PM----------------------------------------------|
|---------------------------------|-----------------------|
|---------------------------------|-----------------------|
|---------------------------------|-----------------------|
|-0-0-2-2-2-2-2-2-0-0-2-2-2-2-2-2-|-0-0-2-2-2-2-2-2-5--5--|
|---------------------------------|-----------------3--3--|
|---------------------------------|-----------------------|


|---------------------------------|------------------------||
|---------------------------------|-----------------------o||
|---------------------------------|------------------------||
|-4-4-4-4-4-4-4-4-4-4-4-4-4-4-4-4-|-4-4-4-4-4-4-4-4-4--5---||
|---------------------------------|-----------------2--3--o||
|---------------------------------|------------------------||
|
| PM----------------------------------------------|
|---------------------------------|------------------------||
|---------------------------------|-----------------------o||
|---------------------------------|------------------------||
|-0-0-2-2-2-2-0-0-2-2-2-2-0-0-2-2-|-0-0-2-2-2-2-2-2-4--5---||
|---------------------------------|-----------------2--3--o||
|---------------------------------|------------------------||


  Gtrs I, II
|---------------|-----------|---------------|-----------|
|---------------|-----------|---------------|-----------|
|------11-11----|-----------|------11-11----|-----------|
|-11---11-11----|-9----7----|-11---11-11----|-9----7----|
|--9----9--9----|-7----5----|--9----9--9----|-7----5----|
|---------------|-----------|---------------|-----------|


|---------------|-----------|---------------|-------------|
|---------------|-----------|---------------|-------------|
|------11-11----|-----------|------11-11----|-------------|
|-11---11-11----|-9----7----|-11---11-11----|-7--7--------|
|--9----9--9----|-7----5----|--9----9--9----|-5--5--7--7--|
|---------------|-----------|---------------|-------5--5--|


|-----------------------------|-------------|-------------|
|-----------------------------|-------------|-------------|
|-----------------------------|-------------|-------------|
|--------7-9-10--------7-9-10-|-9--9--5--5--|-7--7--------|
|-7-9-10--------7-9-10--------|-7--7--3--3--|-5--5--7--7--|
|-----------------------------|-------------|-------5--5--|


  PM-------------------------------
|---------------------------------|
|---------------------------------|
|---------------------------------|
|-0-0-2-2-2-2-2-2-0-0-2-2-2-2-2-2-|
|---------------------------------|
|---------------------------------|


 -------------------------------|
|---------------------------------|-------------|---------------|
|---------------------------------|-------------|---------------|
|---------------------------------|-------------|---------------|
|-0-0-2-2-2-2-2-2-0-0-2-2-2-2-2-2-|-9--9--5--5--|-7--7----------|
|---------------------------------|-7--7--3--3--|-5--5--7--7----|
|---------------------------------|-------------|-------5--5----|


  PM----------------------------------------------|
|---------------------------------|-----------------------|
|---------------------------------|-----------------------|
|---------------------------------|-----------------------|
|-0-0-0-2-2-2-2-2-0-0-2-2-2-2-2-2-|-0-0-2-2-2-2-2-2-5--5--|
|---------------------------------|-----------------3--3--|
|---------------------------------|-----------------------|


  PM----------------------------------------------|
|---------------------------------|-----------------------|
|---------------------------------|-----------------------|
|---------------------------------|-----------------------|
|-0-0-2-2-2-2-0-0-2-2-2-2-0-0-2-2-|-0-0-2-2-2-2-2-2-4--5--|
|---------------------------------|-----------------2--3--|
|---------------------------------|-----------------------|


  Gtr I
  PM----------------------------------------------|
|---------------------------------|-----------------------|
|---------------------------------|-----------------------|
|---------------------------------|-----------------------|
|-0-0-2-2-2-2-2-2-0-0-2-2-2-2-2-2-|-0-0-2-2-2-2-2-2-5--5--|
|---------------------------------|-----------------3--3--|
|---------------------------------|-----------------------|
|
| Gtr II
| PM----------------------------------------------|
|---------------------------------|-----------------------|
|---------------------------------|-----------------------|
|---------------------------------|-----------------------|
|-0-0-2-2-2-2-2-2-0-0-2-2-2-2-2-2-|-0-0-2-2-2-2-2-2-5--5--|
|---------------------------------|-----------------3--3--|
|---------------------------------|-----------------------|


|----------------------------------|
|----------------------------------|
|----------------------------------|
|-4-4-4-4-4-4-4-4-4-4-4-4-4-4-4-4--|
|----------------------------------|
|----------------------------------|
|
| PM----------------------------|
|----------------------------------|
|----------------------------------|
|----------------------------------|
|-0-0-2-2-2-2-0-0-2-2-2-2-0-0-2-2--|
|----------------------------------|
|----------------------------------|


  Gtrs I, II
|-----------------------------|-----------------------------------|
|-----------------------------|-----------------------------------|
|-----------------------------|-----------------------------------|
|--------7-9-10--------7-9-10-|---------10-12-14---------10-12-14-|
|-7-9-10--------7-9-10--------|-9-10-12----------9-10-12----------|
|-----------------------------|-----------------------------------|


|------------------------------------|
|------------------------------------|
|---------11-12-14---------11-12-14--|
|-9-10-12----------9-10-12-----------|
|------------------------------------|
|------------------------------------|


|-----------------------------------|
|-13-12-10---------13-12-10---------|
|----------12-11-9----------12-11-9-|
|-----------------------------------|
|-----------------------------------|
|-----------------------------------|


|-------------------------------|------------------------------|
|-------------------------------|------------------------------|
|-12-11-9--------12-11-9--------|------------------------------|
|---------10-9-7---------10-9-7-|-10-9-7--------10-9-7---------|
|-------------------------------|--------10-9-7--------10-9-7--|
|-------------------------------|------------------------------|


|----------|------------|-----------|-----*|
|----------|------------|-----------|-----*|
|----------|------------|-4--4------|-----*|
|----------|------------|-2--2------|-----*|
|-2--------|-(2)--------|-----------|-----*|
|-0--------|-(0)--------|-----------|-----*|


Tablature Legend
----------------
 h   - hammer-on
 p   - pull-off
 b   - bend
 pb  - pre-bend
 r   - bend release (if no number after the r, then release immediately)
 /  - slide into or out of (from/to "nowhere")
 s   - legato slide
 S   - shift slide
<n>  - natural harmonic
[n]  - artificial harmonic
n(n) - tapped harmonic
 ~   - vibrato
 tr  - trill
 T   - tap
 TP  - trem. picking
 PM  - palm muting
n/  - tremolo bar dip; n = amount to dip
 n  - tremolo bar down
 n/  - tremolo bar up
/n  - tremolo bar inverted dip
 =   - hold bend; also acts as connecting device for hammers/pulls
 <>  - volume swell (louder/softer)
 x   - on rhythm slash represents muted slash
 o   - on rhythm slash represents single note slash

Misc Legend
-----------
 |  - bar
||  - double bar
||o - repeat start
o|| - repeat end
*|  - double bar (ending)
 :  - bar (freetime)
 $  - Segno
 &  - Coda
Tempo markers - <E/E./Q/Q./H/H.> = BPM(8/16=s8/s16),
where s8 = swing 8ths, s16 = swing 16ths

  Visit MetalTabs.com for more metal tablature

bottom separator

Contact Us | Privacy Policy | Disclaimer | Legal Notice
Copyright © 2001-2014 MetalTabs.com. All Rights Reserved.