top separator

Home

Forum

What's New

Submit a Tab

FAQ

Links

Contact Us

Link to Us

MetalTabs.com logo

Bands

0-9

A

B

C

D

E

F

G

H

I

J

K

L

M

N

O

P

Q

R

S

T

U

V

W

X

Y

Z

Search

What

Where
 

Falchion - "Immortal Heroes" Guitar Tab

Plain Text Version
More Falchion Tabs

Hits: 3016
Rated: 4.50 out of 5 (2 votes)
Updated: 2005-11-15 06:54:55

 

By:

Theoldman

sendpm.gif

email.gif

Important note
This tab is available online because we obtained explicit permission from Falchion or their label.


#----------------------------------PLEASE NOTE---------------------------------#
#This file is the author's own work and represents their interpretation of the #
#song. You may only use this file for private study, scholarship, or research. #
#Unless specified otherwise, this is NOT an official tab from the band members.#
#------------------------------------------------------------------------------#

  Visit MetalTabs.com for more metal tablature
  
Band:  Falchion
Album: Legacy Of Heathens
Song:  Immortal Heroes

Copyright (c)  World Chaos Production 2005
Version 1.0 - 4.11.2005

Transcribed By: Theoldman
Email:          swordbearing@hotmail.com
________________________________________

.  - palm mute           /  - slide up to
\  - slide down to       ~  - vibrato
h  - hammer on           b  - Bend
p  - pull off            Suffixes for bend
t  - tap                 f  - full bend    h - half bend
ph - pinched harmonic    q  - quarter bend t - tap bend
*  - see comment         ^  - Hold bend    r release bend
x  - Stuccatto           ~  - vibrato bend
,  - slight palm mute    () - ghost note, sustained note
"  - tremolo note        <> - Trill

Tuning D G C F A D

Solo 1 (acoustic) (0:01-0:27)
|-----------------------|2----------------------------|
|-----4------4-4---4----|-----4-2---4---5-4-4---4-----|
|----------6------------|-----------------------------|
|6----------------------|-----------------------------|
|-----------------------|-----------------------------|
|-----------------------|-----------------------------|

|-----------------------|-----------------------------|
|-----------------------|-----------------------------|
|-----4----3-1----------|-----------------------------|
|6-------------4---1----|4----3-1-------1-------------|
|-----------------------|-----------4-----------------|
|-----------------------|-----------------------------|



Solo 1 (distortion) (0:28-0:48)



Riff 1 (under Solo 1) (0:28-0:48)
|-----------------|-----------------|-----------------|-----------------|
|-----------------|-----------------|-----------------|-----------------|
|-----------------|-----------------|-----------------|3-------3--------|
|-----------------|-----------------|-----------------|1---11111---1111-|
|6-------6--------|4-------4--------|2-------2--------|-----------------|
|4---44444---4444-|2---22222---2222-|0---00000---0000-|-----------------|
     ....    ....      ....    ....      ....    ....      ....    ....
|-----------------|-----------------|-----------------|-----------------|
|-----------------|-----------------|-----------------|-----------------|
|-----------------|3-------3--------|-----------------|3-------3--------|
|-----------------|1---11111---1111-|4----------------|1---11111---1111-|
|6-------6--------|-----------------|2---22226--------|-----------------|
|4---44444---4444-|-----------------|--------4---2222-|-----------------|
     ....    ....      ....    ....      ....    ....      ....    ....


Solo 2 (0:49-1:07)
|---------------------------------|
|--------------9------------------|
|8---11---10-------11---8-11-10-8-|
|---------------------------------|
|---------------------------------|
|---------------------------------|

|-----------------------------------|
|-----11---10--------13---8----10---|
|11-------------11----------11------|
|-----------------------------------|
|-----------------------------------|
|-----------------------------------|

|----------------------------------|
|----------------------------------|
|-----11---10----------------------|
|11-------------11---9---9-11------|
|-----------------------------11---|
|----------------------------------|

|-------------------------------|
|-------------------------------|
|-------------------------------|
|11---9---8---11---9---8-9------|
|--------------------------9-11-|
|-------------------------------|



Riff 2 (under Solo 2) (0:49-1:07)
|----------------------------|----------------------------|
|----------------------------|----------------------------|
|3---3---3---3---3-----------|----------------------------|
|1---1---1---1---1-----------|4---4---4---4---4-----------|
|--------------------2-2-4-4-|2---2---2---2---2---2-2-4-4-|
|----------------------------|----------------------------|
                     . . . .                     . . . .
|----------------------------|----------------------------|
|----------------------------|----------------------------|
|----------------------------|----------------------------|
|4---4---4---4---4-----------||----------------------------|
|2---2---2---2---2---2-2-4-4-|4---4---4---4---4-----2-1---|
|----------------------------|2---2---2---2---2---2-----2-|
                     . . . .                     . . . .


Solo 3 (1:10-1:25)
|------------------------|------------------------|
|------------------------|------------------------|
|8-------8---6-------6---|------------------------|
|----8-----------6-------|9-------9---8-------8---|
|------------------------|----9-----------8-------|
|------------------------|------------------------|

|------------------------|------------------------|
|------------------------|------------------------|
|8---6---4---6---4-------|6---8---6-----------6---|
|--------------------8---|------------9-----------|
|------------------------|----------------9-------|
|------------------------|------------------------|



Riff 3 (under Solo 3) (1:10-1:25)
|------------------------|------------------------|
|------------------------|------------------------|
|3-------3---------------|------------------------|
|1---11111---6-------6---|4-------4---3-------3---|
|------------4---44444---|2---22222---1---11111---|
|------------------------|------------------------|
     ....        ....         ....        ....
|------------------------|------------------------|
|------------------------|------------------------|
|------------------------|------------------------|
|4-------4---------------|6-------6---4-------4---|
|2---22222---4-------4---|4---44444---2---22222---|
|------------2---22222---|------------------------|
     ....        ....         ....        ....


Solo 4 (1:26-1:41)
|-------------|-------------|------------------|-------------------|
|-------------|-------------|------------------|-------------------|
|8------------|-------------|------------------|---------------6---|
|---------8---|-------------|------------------|-------9---8-------|
|-------------|9------------|------8---9---8---|9------------------|
|-------------|-------------|------------------|-------------------|



Riff 4 (under Solo 4) (1:26-1:41)
|------------------------|------------------------|
|------------------------|------------------------|
|3-----------3-----------|------------------------|
|1---1-1-1-1-1---3-------|4-----------3-----------|
|----------------1---1-1-|2---2-2-2-2-1---1-1-1-1-|
|------------------------|------------------------|
     . . . .         . .      . . . .     . . . .
|------------------------|------------------------|
|------------------------|------------------------|
|------------------------|------------------------|
|4-----------3-----------|------------4-----------|
|2---2-2-2-2-1---1-1-1-1-|4-----------2-----------|
|------------------------|2-----------------------|
     . . . .     . . . .


Solo 2 (1:42-2:00)

Riff 2 (1:42-2:00)

Solo 3 (2:01-2:15)

Riff 3 (2:01-2:15)

Solo 4 (2:16-2:31)

Riff 4 (2:16-2:31)



Riff 5 (2:32-3:19)
|------------------------|------------------------|
|------------------------|------------------------|
|3-------3---3-------3---|------------------------|
|1---1-1-1---1---1-1-1---|6-------6---6-------6---|
|------------------------|4---4-4-4---4---4-4-4---|
|------------------------|------------------------|
     . .         . .          . .         . .
|------------------------|------------------------|
|------------------------|------------------------|
|------------------------|------------------------|
|4-------4---4-------4---|3-------3---3-------3---|
|2---2-2-2---2---2-2-2---|1---1-1-1---1---1-1-1---|
|------------------------|------------------------|
     . .         . .          . .         . .


Solo 1 (3:20-3:40)

Riff 1 (3:20-3:40)



Solo 5 (3:41-4:04)
|------------|------------------|--------------------|119------------11\-----|
|------12----|---12-11----------|----------11---12---|---1211----1112--------|
|13----------|13-------13-11----|11---13-------------|-------1113------------|
|------------|------------------|--------------------|-----------------------|
|------------|------------------|--------------------|-----------------------|
|------------|------------------|--------------------|-----------------------|

|--------------|-------------|------------------------|------------------------|
|----------4---|5-----454----|---12-11----12-11-------|------------------------|
|------4-------|-------------|13-------13-------11-13-|121312------------------|
|6-------------|-------------|------------------------|-------13-11-13---------|
|--------------|-------------|------------------------|----------------14-13---|
|--------------|-------------|------------------------|----------------------14|

|---------------|------------------|------------1114--1114161411-----|
|12--------11-9-|12-----12-14-12-9-|121112141214----14----------1412-|
|---------------|------------------|---------------------------------|
|---------------|------------------|---------------------------------|
|---------------|------------------|---------------------------------|
|---------------|------------------|---------------------------------|

|----------------------------|---------11-------------|
|111211912141211911971112119-|---11-12----14-12-11----|
|----------------------------|13-------------------11-|
|----------------------------|------------------------|
|----------------------------|------------------------|
|----------------------------|------------------------|

|14\--11---14~------|---11-13-14-16-14-13-11-|11--------------11---------------|
|-------------------|12----------------------|--141211----------141211---------|
|-------------------|------------------------|--------1311--11--------1311--11-|
|-------------------|------------------------|------------13--------------13---|
|-------------------|------------------------|---------------------------------|
|-------------------|------------------------|---------------------------------|

|---------------------------------|
|---------------------------------|
|13-------------------------------|
|---------------------------------|
|---------------------------------|
|---------------------------------|



Riff 6 (under Solo 5) (3:41-4:04)
|-----------------|-----------------|-----------------|-----------------|
|-----------------|-----------------|-----------------|-----------------|
|-----------------|-----------------|-----------------|3-------3--------|
|-----------------|-----------------|-----------------|1---11111---1111-|
|6-------6--------|4-------4--------|2-------2--------|-----------------|
|4---44444---4444-|2---22222---2222-|0---00000---0000-|-----------------|
     ....    ....      ....    ....      ....    ....      ....    ....
|-----------------|-----------------|-----------------|-----------------|
|-----------------|-----------------|-----------------|-----------------|
|-----------------|3-------3--------|-----------------|3-------3--------|
|-----------------|1---11111---1111-|--------6--------|1---11111---1111-|
|6-------6--------|-----------------|6-------4---4444-|-----------------|
|4---44444---4444-|-----------------|4---4444---------|-----------------|
     ....    ....      ....    ....      ....    ....      ....    ....


Solo 1 (4:05-4:27)

Riff 1 (4:05-4:27)

Solo 4 (4:28-4:59)

Riff 4 (4:28-4:59)

Solo 2 (5:00-5:18)

Riff 2 (5:00-5:18)



END

  Visit MetalTabs.com for more metal tablature

bottom separator

Contact Us | Privacy Policy | Disclaimer | Legal Notice
Copyright © 2001-2014 MetalTabs.com. All Rights Reserved.