top separator

Home

Forum

What's New

Submit a Tab

FAQ

Links

Contact Us

Link to Us

MuSpy.com

MetalTabs.com logo

Bands

0-9

A

B

C

D

E

F

G

H

I

J

K

L

M

N

O

P

Q

R

S

T

U

V

W

X

Y

Z

Search

What

Where
 

Darkthrone - "Transilvanian Hunger" Bass Tab

Plain Text Version
More Darkthrone Tabs

Hits: 4476
Rated: 3.60 out of 5 (5 votes)
Updated: 2005-11-15 06:24:05

 

By:

sendpm.gif

email.gif

Important note
This tab is available online because we obtained explicit permission from Darkthrone or their label.


#----------------------------------PLEASE NOTE---------------------------------#
#This file is the author's own work and represents their interpretation of the #
#song. You may only use this file for private study, scholarship, or research. #
#Unless specified otherwise, this is NOT an official tab from the band members.#
#------------------------------------------------------------------------------#

  Visit MetalTabs.com for more metal tablature
  
Band: Darkthrone
Album: Transilvanian Hunger
Song: Transilvanian Hunger

Standard tuning (E,A,D,G)

100& correct... i think
                                                                         8x
G||-----------------------------------|----------------------------------||
D||*----------------------------------|----------------------------------||
A||*----------------------------------|----------------------------------||
E||---5-5-5-5-5-5-5-5-5-5-5-5-5-5-5-5-|-0-0-0-0-0-0-0-0-0-0-0-0-0-0-0-0--||


                                                                       8x
-----------------------------------|-----------------------------------||
*----------------------------------|----------------------------------*||
*------------------6-6-6-6-6-6-6-6-|----------------------------------*||
---5-5-5-5-5-5-5-5-----------------|--5-5-5-5-5-5-5-5-7-7-7-7-8-8-8-8--||


                                                                      4x
-----------------------------------|----------------------------------||
*----------------------------------|----------------------------------||
*----------------------------------|----------------------------------||
---5-5-5-5-5-5-5-5-5-5-5-5-5-5-5-5-|-0-0-0-0-0-0-0-0-0-0-0-0-0-0-0-0--||


                                                                       4x
-----------------------------------|-----------------------------------||
*----------------------------------|----------------------------------*||
*------------------6-6-6-6-6-6-6-6-|----------------------------------*||
---5-5-5-5-5-5-5-5-----------------|--5-5-5-5-5-5-5-5-7-7-7-7-8-8-8-8--||


                                                                       6x
-----------------------------------|-----------------------------------||
*----------------------------------|----------------------------------*||
*----------------------------------|----------------------------------*||
---0-0-0-0-0-0-0-0-0-0-0-0-0-0-0-0-|--1-1-1-1-1-1-1-1-1-1-1-1-1-1-1-1--||


                                                                      4x
-----------------------------------|----------------------------------||
*----------------------------------|----------------------------------||
*----------------------------------|----------------------------------||
---5-5-5-5-5-5-5-5-5-5-5-5-5-5-5-5-|-0-0-0-0-0-0-0-0-0-0-0-0-0-0-0-0--||


                                                                       4x
-----------------------------------|-----------------------------------||
*----------------------------------|----------------------------------*||
*------------------6-6-6-6-6-6-6-6-|----------------------------------*||
---5-5-5-5-5-5-5-5-----------------|--5-5-5-5-5-5-5-5-7-7-7-7-8-8-8-8--||


                                                                      8x
-----------------------------------|----------------------------------||
*----------------------------------|----------------------------------||
*----------------------------------|----------------------------------||
---5-5-5-5-5-5-5-5-5-5-5-5-5-5-5-5-|-0-0-0-0-0-0-0-0-0-0-0-0-0-0-0-0--||


                                                                      1x
-----------------------------------|----------------------------------||
*----------------------------------|----------------------------------||
*----------------------------------|----------------------------------||
--1212121210101010-9-9-9-9-10101010|10101010-9-9-9-9-10101010-9-9-9-9-||


Play this until the song stops
-----------------------------------|----------------------------------||
*----------------------------------|----------------------------------||
*----------------------------------|----------------------------------||
---5-5-5-5-5-5-5-5-5-5-5-5-5-5-5-5-|-0-0-0-0-0-0-0-0-0-0-0-0-0-0-0-0--||

If you have any corrections please mail me at Demiigod@hotmail.com

  Visit MetalTabs.com for more metal tablature

bottom separator

Contact Us | Privacy Policy | Disclaimer | Legal Notice
Copyright © 2001-2014 MetalTabs.com. All Rights Reserved.