top separator

Home

Forum

What's New

Submit a Tab

FAQ

Links

Contact Us

Link to Us

MetalTabs.com logo

Bands

0-9

A

B

C

D

E

F

G

H

I

J

K

L

M

N

O

P

Q

R

S

T

U

V

W

X

Y

Z

Search

What

Where
 

Manegarm - "Sigrblot" Bass Tab

Plain Text Version
More Manegarm Tabs

Hits: 3519
Rated: 5.00 out of 5 (1 vote)
Updated: 2005-11-15 06:22:43

 

By:

Vomitblast

sendpm.gif

email.gif

Important note
This tab is available online because we obtained explicit permission from Manegarm or their label.


#----------------------------------PLEASE NOTE---------------------------------#
#This file is the author's own work and represents their interpretation of the #
#song. You may only use this file for private study, scholarship, or research. #
#Unless specified otherwise, this is NOT an official tab from the band members.#
#------------------------------------------------------------------------------#

  Visit MetalTabs.com for more metal tablature
  
Band: Manegarm
Album: Vredens Tid
Song: Sigrblot

Copyright (c)  Displeased Records 2005
Version 1.0 - 2.11.2005

Transcribed By: Danilo Janjic
Email: gore.grinded@gmail.com




Tuning E A D G

Riff 1 (0:00)
|------------------------------|--------------------|
|------------------------------|--------------------|
|--7-7-7--5-5-5--3-3-3--5-5-5--|--3--2--------------|
|------------------------------|--------------------|


Riff 2 (0:31)
|--------------------------|
|--------------------------|
|--------------------------|
|--3--4--4--4--4--4--4--4--| 2x


|--------------------------|--------------------------|
|--------------------------|--------------------------|
|--------------------------|--------------------------|
|--8--7--7--7--7--7--7--6--|--8--7--7--7--7--7--7--7--|


Riff 3 (0:45)
|--------------------------|---------------------------|
|--------------------------|---------------------------|
|--------------------------|--1----2--2--2--2--2--2----|
|---3----2--2--2--2--2--2--|---------------------------| 2x


|--------------------------|--------------------------|
|--------------------------|--------------------------|
|--0--0--0--0--------------|--------------------------|
|--------------4--4--4--4--|--3--3--3--3--2--2--2--2--|


Riff 1 (0:58)

Riff 2 (1:14)

Riff 3 (1:28)

Riff 1 (1:42)


Riff 4 (1:57)
|--------------------|--------------------|
|--------------------|--------------------|
|--2-----------------|--2-------5---------|
|-----------0--------|--------------------|


Riff 5 (2:31)
|--------------------------|--------------------------|
|--------------------------|--------------------------|
|--3--3--3--3--3--3--3--3--|--------------------------|
|--------------------------|--0--0--0--0--0--0--0--0--|

|--------------------------|--------------------------|
|--------------------------|--------------------------|
|--2--2--2--2--2--2--2--2--|--5--5--5--5--5--5--5--5--|
|--------------------------|--------------------------|


Riff 6 (3:03)
|------------------------------|
|------------------------------|
|--3--3--3--0-7-5--5--5--5--7--|
|------------------------------|3x

|------------------------------|
|------------------------------|
|--3--3--5--3--2-2-2-2-2-2-2-2-|
|------------------------------|


Riff 1 (3:19)
Riff 2 (3:50)
Riff 3 (4:04)
Riff 1 (4:18)

END

  Visit MetalTabs.com for more metal tablature

bottom separator

Contact Us | Privacy Policy | Disclaimer | Legal Notice
Copyright © 2001-2014 MetalTabs.com. All Rights Reserved.