top separator

Home

Forum

What's New

Submit a Tab

FAQ

Links

Contact Us

Link to Us

MuSpy.com

MetalTabs.com logo

Bands

0-9

A

B

C

D

E

F

G

H

I

J

K

L

M

N

O

P

Q

R

S

T

U

V

W

X

Y

Z

Search

What

Where
 

Ved Buens Ende - "Remembrance of things past" Guitar Tab

Plain Text Version
More Ved Buens Ende Tabs

Hits: 4467
Rated: 4.67 out of 5 (3 votes)
Updated: 2005-11-15 06:22:08

 

By:

Robbie Filth

sendpm.gif

email.gif

Important note
This tab is available online because we obtained explicit permission from Ved Buens Ende or their label.


#----------------------------------PLEASE NOTE---------------------------------#
#This file is the author's own work and represents their interpretation of the #
#song. You may only use this file for private study, scholarship, or research. #
#Unless specified otherwise, this is NOT an official tab from the band members.#
#------------------------------------------------------------------------------#

  Visit MetalTabs.com for more metal tablature
  
Band: Ved Buens Ende
Album: Written in Waters
Song: Remembrance of Things Past
Record Label: Misanthropy Records
Tuning: E A D G B E          Nice and Standard.........

---------------------------------------- Do this bit 4 times
----------------------------------------
----------------0-------------------0---
----------------------------------------
---7/11-11-8-11---11-8----7/11-11-8-10--
-0----------------------0--------------- last 10 with the 0 on the G String

-------------------------------1-------
-----------------------0-----0---2-----
-----------0---------3---3---3-----3---
---------------------------0-----------
---5/7-7/8-------8---------------------
-0-----------4-5---0-------------------X2

-------------------------------1-------
-----------0-----------0-----0---2-----
---------------------3---3---3-----3---
---------------------------0-----------
---5/7-7/8-------8---------------------
-0-----------4-5---0-------------------

-----------0--------------------1------
-----------------------0-----0---2-----
---------------------3---3---3-----3---
---------------------------0-----------
---5/7-7/8-------8---------------------
-0-----------4-5---0-------------------

---------------------------------------- Do this bit 4 times
----------------------------------------
----------------0-------------------0---
----------------------------------------
---7/11-11-8-11---11-8----7/11-11-8-10--
-0----------------------0--------------- last 10 with the 0 on the G String

-------------------------------1-------
-----------------------0-----0---2-----
-----------0---------3---3---3-----3---
---------------------------0-----------
---5/7-7/8-------8---------------------
-0-----------4-5---0-------------------

-------------------------------1-------
-----------0-----------0-----0---2-----
---------------------3---3---3-----3---
---------------------------0-----------
---5/7-7/8-------8---------------------
-0-----------4-5---0-------------------

-----------0--------------------1------
-----------------------0-----0---2-----
---------------------3---3---3-----3---
---------------------------0-----------
---5/7-7/8-------8---------------------
-0-----------4-5---0-------------------

-------------------------------1--------let last chord ring.
-----------------------0-----0---2---0--
-----------0---------3---3---3-----3-3--
---------------------------0------------
---5/7-7/8-------8----------------------
-0-----------4-5---0--------------------

(Distortion)
------------------------------------------------------------------------
---------88-----------------------88------------------------------------
-----------99-----------------------99----------------------------------
--999999-----99-999-8-8-8--999999-----99-999-8-8-8--5-4-1-4-5--8-7-5-4--
--777777--------777-6-6-6--777777--------777-6-6-6--3-6-3-6-7-10-9-7-6--
------------------------------------------------------------------------X4

-----------------------------------------------0-----------------------
-------------------------------------------------1---------------------
-------7---------------7-----------------7\5---------2-------7---------
-----9-------8-------9-----------------9-----------------9-------------
---9-------8---8---9-----10-12-13----9-----------------9-----10-13-15--
-7-------6-------7--------8-10-11--7---------6-------7--------8-11-13--
 trem all

(Distortion)
------------------------------------------------------------------------
---------88-----------------------88------------------------------------
-----------99-----------------------99----------------------------------
--999999-----99-999-8-8-8--999999-----99-999-8-8-8--5-4-1-4-5--8-7-5-4--
--777777--------777-6-6-6--777777--------777-6-6-6--3-6-3-6-7-10-9-7-6--
------------------------------------------------------------------------X4

-----------0-----------------------------------0-----------------------
-------------1-----------------------------------1---------------------
-------7-------2-------7-----------------7\5---------2-------7---------
-----9---------------9-----------------9-----------------9-------------
---9---------------9-----10-12-13----9-----------------9-----10-13-15--
-7-------6-------7--------8-10-11--7---------6-------7--------8-11-13--X2
 trem all

--------------
--------------
--------------
-9-----10--9--
-7--11--8--7--
-----9--------

-0------------------------------------------------------
---0----------------------------------------------------
-----0---------5-555-5-444-4-444---1-111-1-000----------
-------2---------------------------------------3--------
---------2-3-2-------------------3---------------3------
-----------1-0-------------------1-----------------1-0--

-7------------0-------------------------------------------------------
---8------------0-----------------------------------------------------
-----9------------0---------5-555-5-444-4-444---1-111-1-000-----------
-------9------------2---------------------------------------3---------
---------7--2----------2-3-2-------------------3---------------3------
------------0------------1-0-------------------1-----------------1-0--X5

Part with lots of strange noises

(Clean)
-7------------0-------------------------------------------------------
---8------------0-----------------------------------------------------
-----9------------0---------5-555-5-444-4-444---1-111-1-000-----------
-------9------------2---------------------------------------3---------
---------7--2----------2-3-2-------------------3---------------3------
------------0------------1-0-------------------1-----------------1-0--X5

The End

There may be a few mistakes if so mail them to:
septic_flesh241@hotmail.com

  Visit MetalTabs.com for more metal tablature

bottom separator

Contact Us | Privacy Policy | Disclaimer | Legal Notice
Copyright © 2001-2014 MetalTabs.com. All Rights Reserved.