#----------------------------------PLEASE NOTE---------------------------------#
#This file is the author's own work and represents their interpretation of the #
#song. You may only use this file for private study, scholarship, or research. #
#Unless specified otherwise, this is NOT an official tab from the band members.#
#------------------------------------------------------------------------------#

  Visit MetalTabs.com for more metal tablature
  
Band:  Impetigo
Album: All you need is cheese
Song:  Revenge of the scabbyman

Copyright (c)  bizarre leprous productions 1999
Version 1.0  30-10-2005

Transcribed By: adam_bombsack
Email:          verlindenmaarten@hotmail.com


.  - palm mute           /  - slide up to
\  - slide down to       ~  - vibrato
h  - hammer on           b  - Bend
p  - pull off            Suffixes for bend
t  - tap                 f  - full bend    h - half bend
ph - pinched harmonic    q  - quarter bend t - tap bend
*  - see comment         ^  - Hold bend    r release bend
x  - Stuccatto           ~  - vibrato bend
,  - slight palm mute    () - ghost note, sustained note
"  - tremolo note        <> - Trill

Tuning B

Riff A

|-------------------------------------------------------------------|
|-------------------------------------------------------------------|
|-------------------------------------------------------------------|
|-------------------------------------------------------------------|
|-7-7-2-2-7-7-2-2-7-7-2-2-3---5--7-7-2-2-7-7-2-2-7-7-2-2-3---5------|
|-5-5-0-0-5-5-0-0-5-5-0-0-1---3--5-5-0-0-5-5-0-0-5-5-0-0-1---3------|

|-------------------------------------------------------------------|
|-------------------------------------------------------------------|
|-------------------------------------------------------------------|
|-------------------------------------------------------------------|
|-3-3-2-2-3-3-2-2-3-3-2-2-3---5--7-7-2-2-7-7-2-2-7-7-2-2-3---5------|
|-1-1-0-0-1-1-0-0-1-1-0-0-1---3--5-5-0-0-5-5-0-0-5-5-0-0-1---3------|

Ends on: |-2-|
         |-0-|


Riff B

|-------------------------------------------------------------------|
|-------------------------------------------------------------------|
|-------------------------------------------------------------------|
|-------------------------------------------------------------------|
|-------------------------------------------------------------------|
|-5555555511331133--------------------------------------------------|

Song structure:  A ( 4), B (8), A (2)

END

  Visit MetalTabs.com for more metal tablature