top separator

Home

Forum

What's New

Submit a Tab

FAQ

Links

Contact Us

Link to Us

MuSpy.com

MetalTabs.com logo

Bands

0-9

A

B

C

D

E

F

G

H

I

J

K

L

M

N

O

P

Q

R

S

T

U

V

W

X

Y

Z

Search

What

Where
 

Otyg - "Bäckahästen" Guitar Tab

Plain Text Version
More Otyg Tabs

Hits: 3272
Rated: 5.00 out of 5 (1 vote)
Updated: 2005-11-14 04:32:04

 

By:

Darkenelf

sendpm.gif

email.gif

Important note
This tab is available online because we obtained explicit permission from Otyg or their label.


#----------------------------------PLEASE NOTE---------------------------------#
#This file is the author's own work and represents their interpretation of the #
#song. You may only use this file for private study, scholarship, or research. #
#Unless specified otherwise, this is NOT an official tab from the band members.#
#------------------------------------------------------------------------------#

  Visit MetalTabs.com for more metal tablature
  
Band: Otyg
Album: Sagovindars Boning
Song: Bäckahästen

Copyright (c)  (Napalm Records)
Version 1.0 - (10-11-2005)

Transcribed By: (Martijn Wietsma)(Asmundr/Darkenelf)
Email:          (asmundr@vikingblood.net)


.  - palm mute           /  - slide up to
\  - slide down to       ~  - vibrato
h  - hammer on           b  - Bend
p  - pull off            Suffixes for bend
t  - tap                 f  - full bend    h - half bend
ph - pinched harmonic    q  - quarter bend t - tap bend
*  - see comment         ^  - Hold bend    r release bend
x  - Stuccatto           ~  - vibrato bend
,  - slight palm mute    () - ghost note, sustained note
"  - tremolo note        <> - Trill

Tuning E A D G B E

A
|-------------------------------------------------------------------|
|-------------------------------------------------------------------|
|-------------------------------------------------------------------|(1x)
|----------------------------5555-5---------------------------------|
|-7777-7---6666-6---7777-7---5555-5-6666-6--------------------------|
|-5555-5---4444-4---5555-5----------4444-4--------------------------|

B
|-------------------------------------------------------------------|
|-------------------------------------------------------------------|
|-------------------------------------------------------------------|(1x)
|----------------------------------5555-5---------------------------|
|-7777-7---10101010-10----7777-7---5555-5-6666-6--------------------|
|-5555-5----8-8-8-8--8----5555-5----------4444-4--------------------|

C (0:18)
|-------------------------------------------------------------------|
|-------------------------------------------------------------------|
|-------------------------------------------------------------------|(1x)
|----------------------------5-555~---------------------------------|
|-7-777~---6-666~---7-777~---5-555--6-666~--------------------------|
|-5-555----4-444----5-555-----------4-444---------------------------|

D
|-------------------------------------------------------------------|
|-------------------------------------------------------------------|
|-------------------------------------------------------------------|(1x)
|--------------------------------5-555~-----------------------------|
|-7-777~---10-101010~---7-777~---5-555--6-666~----------------------|
|-5-555-----8--8-8-8----5-555-----------4-444-----------------------|

E (0:34)
|-------------------------------------------------------------------|
|-------------------------------------------------------------------|
|-------------------------------------------------------------------|(1x)
|-9----------9------------------------------------------------------|
|-7-\7-7-7---7-\7-7-7---9/14-13--10-9-10--7-------------------------|
|---\5-5-5------5-5-5---7/12-11---8-7--8--5-------------------------|

F
|-------------------------------------------------------------------|
|-------------------------------------------------------------------|
|-------------------------------------------------------------------|(1x)
|-9----------------2--5-7-5-----------------------------------------|
|-7-\7-7-7---5-333-2--3-5-3-8-5-7~----------------------------------|
|---\5-5-5---3-111-0--------6-3-5-----------------------------------|

Repeat riff E 1x
Repeat riff F 1x
Repeat riff E 1x
Repeat riff F 1x
Repeat riff E 1x
Repeat riff F 1x

G (1:06)
|-------------------------------------------------------------------|
|-------------------------------------------------------------------|
|-------------------------------------------------------------------|(4x)
|-------------------------------------------------------------------|
|-77-777---77-777---77-777---77-777---------------------------------|
|-55-555---55-555---55-555---55-555---------------------------------|
  .. ...   .. ...   .. ...   .. ...

(1:23)

Repeat riff E 1x
Repeat riff F 1x
Repeat riff E 1x
Repeat riff F 1x

H (1:39)
|-------------------------------------------------------------------|
|-------------------------------------------------------------------|
|-------------------------------------------------------------------|(2x)
|-------------------------------------------------------7-9-5/7-----|
|-----7-6---6h7~--------7-6---7~-------7-6---6h7----777-------------|
|-555-----8--------555------8------555-----8-----5------------------|

I (1:56)
|-------------------------------------------------------------------|
|-------------------------------------------------------------------|
|-----------------------------------------2-4-5~--------------------|(4x)
|-2h3p2h---5-3~--2h3p2h----2h3----2h3p2-5---------------------------|
|--------5--------------5------5------------------------------------|
|-------------------------------------------------------------------|

(2:21)

Repeat riff A 1x
Repeat riff B 1x

(2:38)

Repeat riff C 1x
Repeat riff D 1x
Repeat riff C 1x

(2:54)

Repeat riff E 1x
Repeat riff F 1x
Repeat riff E 1x
Repeat riff F 1x

(3:11)

Repeat riff G 4x

(3:28)

Repeat riff E 1x
Repeat riff F 1x
Repeat riff E 1x
Repeat riff F 1x

(3:45)

Repeat riff H 2x

(4:00)

Repeat riff I 4x

(End of Song)

  Visit MetalTabs.com for more metal tablature

bottom separator

Contact Us | Privacy Policy | Disclaimer | Legal Notice
Copyright © 2001-2014 MetalTabs.com. All Rights Reserved.