top separator

Home

Forum

What's New

Submit a Tab

FAQ

Links

Contact Us

Link to Us

MetalTabs.com logo

Bands

0-9

A

B

C

D

E

F

G

H

I

J

K

L

M

N

O

P

Q

R

S

T

U

V

W

X

Y

Z

Search

What

Where
 

Otyg - "Vilievandring" Guitar Tab

Plain Text Version
More Otyg Tabs

Hits: 2961
Rated: 4.00 out of 5 (1 vote)
Updated: 2005-11-14 04:05:47

 

By:

Darkenelf

sendpm.gif

email.gif

Important note
This tab is available online because we obtained explicit permission from Otyg or their label.


#----------------------------------PLEASE NOTE---------------------------------#
#This file is the author's own work and represents their interpretation of the #
#song. You may only use this file for private study, scholarship, or research. #
#Unless specified otherwise, this is NOT an official tab from the band members.#
#------------------------------------------------------------------------------#

  Visit MetalTabs.com for more metal tablature
  
Band: Otyg
Album: Sagovindars Boning
Song: Vilievandring

Copyright (c)  (Napalm Records)
Version 1.0 - (08-11-2005)

Transcribed By: Martijn Wietsma (Asmundr/Darkenelf)
Email: asmundr@vikingblood.net


.  - palm mute           /  - slide up to
\  - slide down to       ~  - vibrato
h  - hammer on           b  - Bend
p  - pull off            Suffixes for bend
t  - tap                 f  - full bend    h - half bend
ph - pinched harmonic    q  - quarter bend t - tap bend
*  - see comment         ^  - Hold bend    r release bend
x  - Stuccatto           ~  - vibrato bend
,  - slight palm mute    () - ghost note, sustained note
"  - tremolo note        <> - Trill

Tuning E A D G B E

A
|-------------------------------------------------------------------|
|-------------------------------------------------------------------|
|-------------------------------------------------------------------|(1x)
|-------------------------------------------------------------------|
|-9--5--4----5-----2--4/5--4-9-8--4/5--7-5-9------------------------|
|-7--3--2-0h-3-----0--2/3--2-7-6--2/3--5-3-7------------------------|

B
|-------------------------------------------------------------------|
|-------------------------------------------------------------------|
|-------------------------------------------------------------------|(1x)
|---------------------9-----------------2---------------------------|
|-9--5--4----5--------9-----9-5--77-5-4-2---------------------------|
|-7--3--2-0h-3-----7--7--8--7-3--55-3-2-0---------------------------|
                   .     .

(0:14) Repeat riff A 1x
       Repeat riff B 1x
(0:28) Repeat riff A 1x

(0:34)
C
|-------------------------------------------------------------------|
|-------------------------------------------------------------------|
|-------------------------------------------------------------------|(1x)
|---------------------9^----8^------------2-------------------------|
|-9--5--4----5------------------5--77-5-4-2-------------------------|
|-7--3--2-0h-3-----7------7-----3--55-3-2-0-------------------------|
                   .      .

(0:40) Repeat riff A 1x
(0:46) Repeat riff C 1x

(0:53)
D
|-------------------------------------------------------------------|
|-------------------------------------------------------------------|
|-----5-2h4-4-------2-2-----------5-2h4-4-----2---------------------|
|-2~------------5~------4-4~---2~-----------5---5p4p2-2~------------|
|-------------------------------------------------------------------|
|-------------------------------------------------------------------|

|-------------------------------------------------------------------|
|-------------------------------------------------------------------|
|-----5-2h4-4-------2-2-----------5-2h4-4---------------------------|
|-2~------------5~------4-4~---2~-----------5~--4~--2~--------------|
|-------------------------------------------------------------------|
|-------------------------------------------------------------------|

|-------------------------------------------------------------------|
|-------------------------------------------------------------------|
|-----5-2h4-4-------2-2-----------5-2h4-4-----2---------------------|
|-2~------------5~------4-4~---2~-----------5---5p4p2-2~------------|
|-------------------------------------------------------------------|
|-------------------------------------------------------------------|

|-------------------------------------------------------------------|
|-------------------------------------------------------------------|
|-----5-2h4-4-------2-2-----------5-2h4-4---------------------------|
|-2~------------5~------4-4~---2~-----------5~--4~--2~--------------|
|-------------------------------------------------------------------|
|-------------------------------------------------------------------|

(1:19) Repeat riff A 1x
       Repeat riff C 1x
(1:33) Repeat riff A 1x
       Repeat riff C 1x
(1:46) Repeat riff D 2x

(2:12)
E
|-------------------------------------------------------------------|
|-------------------------------------------------------------------|
|-------------------------------------------------------------------|
|-------------------------------------------------------------------|
|--------------------9---10-12--------------------10p9-10p9-7h9~----|
|-8-10-8--5/7-7~---7---7---------8-10-8--5/7-7~---------------------|

|-------------------------------------------------------------------|
|-------------------------------------------------------------------|
|-------------------------------------------------------------------|
|-------------------------------------------------------------------|
|--------------------9---10-12--------------------10p9-10p7h----7~--|
|-8-10-8--5/7-7~---7---7---------8-10-8--5/7-7~--------------10-----|

|-------------------------------------------------------------------|
|-------------------------------------------------------------------|
|-------------------------------------------------------------------|
|-------------------------------------------------------------------|
|--------------------9---10-12--------------------10p9-10p9-7h9~----|
|-8-10-8--5/7-7~---7---7---------8-10-8--5/7-7~---------------------|

|-------------------------------------------------------------------|
|-------------------------------------------------------------------|
|-------------------------------------------------------------------|
|-------------------------------------------------------------------|
|--------------------9---10-12--------------------10p9-10p7h----7~--|
|-8-10-8--5/7-7~---7---7---------8-10-8--5/7-7~--------------10-----|

F (2:39)
|-------------------------------------------------------------------|
|-------------------------------------------------------------------|
|-------------------------------------------------------------------|(1x)
|-------------------------------------------------------------------|
|-9-9-9--5-5--4-4-4-----5-----2--4/5--4-9-8--4/5--7-5-9-------------|
|-7-7-7--3-3--2-2-2--0h-3-----0--2/3--2-7-6--2/3--5-3-7-------------|

       Repeat riff B 1x
(2:52) Repeat riff A 1x
       Repeat riff B 1x
(3:06) Repeat riff A 1x
       Repeat riff C 1x
(3:19) Repeat riff A 1x
       Repeat riff C 1x
(3:32) Repeat riff D 2x

(End of Song)

  Visit MetalTabs.com for more metal tablature

bottom separator

Contact Us | Privacy Policy | Disclaimer | Legal Notice
Copyright © 2001-2014 MetalTabs.com. All Rights Reserved.