top separator

Home

Forum

What's New

Submit a Tab

FAQ

Links

Contact Us

Link to Us

MuSpy.com

MetalTabs.com logo

Bands

0-9

A

B

C

D

E

F

G

H

I

J

K

L

M

N

O

P

Q

R

S

T

U

V

W

X

Y

Z

Search

What

Where
 

Anaal Nathrakh - "Submission Is For The Weak" Guitar Tab

Plain Text Version
More Anaal Nathrakh Tabs

Hits: 3847
Rated: 5.00 out of 5 (2 votes)
Updated: 2005-11-14 04:03:30

 

By:

Sick Steve

sendpm.gif

email.gif

Important note
This tab is available online because we obtained explicit permission from Anaal Nathrakh or their label.


#----------------------------------PLEASE NOTE---------------------------------#
#This file is the author's own work and represents their interpretation of the #
#song. You may only use this file for private study, scholarship, or research. #
#Unless specified otherwise, this is NOT an official tab from the band members.#
#------------------------------------------------------------------------------#

  Visit MetalTabs.com for more metal tablature
  
Band:  Anaal Natrakh
Album: The Codex Necro
Song:  Submission Is For The Weak

Tabbed by: Sick Steve

Tuning: Down 1 step


Play x3

|--------------------------------|
|--------------------------------|
|--------------------------------|
|------10"----9"------6"---------|
|----7"-----7"---7"-8"--8"-------|
|-0------------------------------|


Play x1

|--------------------------------|
|--------------------------------|
|--------------------------------|
|------10"----9"------6"---------|
|----8"-----8"---8"-8"--8"-------|
|-1------------------------------|


Play x3

|--------------------------------|
|--------------------------------|
|--------------------------------|
|------10"----9"------6"---------|
|----7"-----7"---7"-8"--8"-------|
|-0------------------------------|


Play x1

|--------------------------------|
|--------------------------------|
|--------------------------------|
|------10"----9"------6"---------|
|----8"-----8"---8"-8"--8"-------|
|-1------------------------------|


Play x3

|--------------------------------|
|--------------------------------|
|--------------------------------|
|------10"----9"------6"---------|
|----7"-----7"---7"-8"--8"-------|
|-0------------------------------|


Play x1

|--------------------------------|
|--------------------------------|
|--------------------------------|
|------10"----9"------6"---------|
|----8"-----8"---8"-8"--8"-------|
|-1------------------------------|


Play x3

|--------------------------------|
|--------------------------------|
|--------------------------------|
|------10"----9"------6"---------|
|----7"-----7"---7"-8"--8"-------|
|-0------------------------------|


Play x1

|--------------------------------|
|--------------------------------|
|--------------------------------|
|------10"----9"------6"---------|
|----8"-----8"---8"-8"--8"-------|
|-1------------------------------|


Play x1

|--------------------------------|
|--------------------------------|
|--------------------------------|
|--------------------------------|
|-2------------------------------|
|-0------------------------------|


Play x8

|------------------------------------|
|------------------------------------|
|--------------------------3"--------|
|----2"------------2"----------------|
|-----------2"-----------------------|
|-0"----0"-----0"-----0"1"-----------|


Play x2

|--------------------------------------------------|
|--------------------------------------------------|
|--------------------------------------------------|
|--------------------------------------------------|
|-2---------9---8-------7--------10--9---58-------|
|-0---------7---6-------5--------8---7---3-6-------|
Listen to the song for the strumming pattern of this riff


Play x4

|------------------------------------|
|------------------------------------|
|--------------------------3"--------|
|----2"------------2"----------------|
|-----------2"-----------------------|
|-0"----0"-----0"-----0"1"-----------|


Play x2

|--------------------------------------------------|
|--------------------------------------------------|
|--------------------------------------------------|
|--------------------------------------------------|
|-2---------9---8-------7--------10--9---58-------|
|-0---------7---6-------5--------8---7---3-6-------|


Play x8

|------------------------------------|
|------------------------------------|
|--------------------------3"--------|
|----2"------------2"----------------|
|-----------2"-----------------------|
|-0"----0"-----0"-----0"1"-----------|


Play x3

|--------------------------------|
|--------------------------------|
|--------------------------------|
|------10"----9"------6"---------|
|----7"-----7"---7"-8"--8"-------|
|-0------------------------------|


Play x1

|--------------------------------|
|--------------------------------|
|--------------------------------|
|------10"----9"------6"---------|
|----8"-----8"---8"-8"--8"-------|
|-1------------------------------|


Play x3

|--------------------------------|
|--------------------------------|
|--------------------------------|
|------10"----9"------6"---------|
|----7"-----7"---7"-8"--8"-------|
|-0------------------------------|


Play x1

|--------------------------------|
|--------------------------------|
|--------------------------------|
|------10"----9"------6"---------|
|----8"-----8"---8"-8"--8"-------|
|-1------------------------------|


Play x3

|--------------------------------|
|--------------------------------|
|--------------------------------|
|------10"----9"------6"---------|
|----7"-----7"---7"-8"--8"-------|
|-0------------------------------|


Play x1

|--------------------------------|
|--------------------------------|
|--------------------------------|
|------10"----9"------6"---------|
|----8"-----8"---8"-8"--8"-------|
|-1------------------------------|


Play x3

|------------------------|
|------------------------|
|------------------------|
|------------------------|
|-----3----2---2-3/63----|
|-00001-0000-000-1/41----|
  ....  ...  ..


Play x1

|------------------------|
|------------------------|
|------------------------|
|------------------------|
|-----3----3---3-3/63----|
|-11111-1111-111-1/41----|
  ....  ...  ..


Play x3

|------------------------|
|------------------------|
|------------------------|
|------------------------|
|-----3----2---2-3/63----|
|-00001-0000-000-1/41----|
  ....  ...  ..


Play x1

|------------------------|
|------------------------|
|------------------------|
|------------------------|
|-----3----3---3-3/63----|
|-11111-1111-111-1/41----|
  ....  ...  ..


Play x2

|--------------------------------------------------|
|--------------------------------------------------|
|--------------------------------------------------|
|--------------------------------------------------|
|-2---------9---8-------7--------10--9---58-------|
|-0---------7---6-------5--------8---7---3-6-------|


Play x2

|----------------------------------------------------------|
|----------------------------------------------------------|
|-10"---9"-------8"---7"------7"---6"------6"---5"---------|
|----------11"-----------9"-----------8"-----------7"------|
|----------------------------------------------------------|
|----------------------------------------------------------|
Lead type guitar under bass


Play x3

|--------------------------------|
|--------------------------------|
|--------------------------------|
|------10"----9"------6"---------|
|----7"-----7"---7"-8"--8"-------|
|-0------------------------------|


Play x1

|--------------------------------|
|--------------------------------|
|--------------------------------|
|------10"----9"------6"---------|
|----8"-----8"---8"-8"--8"-------|
|-1------------------------------|


Play x3

|--------------------------------|
|--------------------------------|
|--------------------------------|
|------10"----9"------6"---------|
|----7"-----7"---7"-8"--8"-------|
|-0------------------------------|


Play x1

|--------------------------------|
|--------------------------------|
|--------------------------------|
|------10"----9"------6"---------|
|----8"-----8"---8"-8"--8"-------|
|-1------------------------------|


Play x8

|------------------------------------|
|------------------------------------|
|--------------------------3"--------|
|----2"------------2"----------------|
|-----------2"-----------------------|
|-0"----0"-----0"-----0"1"-----------|


 | /  slide up
 | \  slide down
 | h  hammer on
 | p  pull off
 | b  bend
 | r  release
 | ~  vibrato
 | +  harmonic
 | .  palm mute
 | "  trem pick
 | <  volume swell

Any comments or suggestions email: saltmakesmecough@yahoo.co.uk
===============================================================

  Visit MetalTabs.com for more metal tablature

bottom separator

Contact Us | Privacy Policy | Disclaimer | Legal Notice
Copyright © 2001-2014 MetalTabs.com. All Rights Reserved.