top separator

Home

Forum

What's New

Submit a Tab

FAQ

Links

Contact Us

Link to Us

MetalTabs.com logo

Bands

0-9

A

B

C

D

E

F

G

H

I

J

K

L

M

N

O

P

Q

R

S

T

U

V

W

X

Y

Z

Search

What

Where
 

Moonsorrow - "Kylän Päässä" Guitar Tab

Plain Text Version
More Moonsorrow Tabs

Hits: 4801
Updated: 2005-11-14 03:59:02

 

By:

Theoldman

sendpm.gif

email.gif

Important note
This tab is available online because we obtained explicit permission from Moonsorrow or their label.


#----------------------------------PLEASE NOTE---------------------------------#
#This file is the author's own work and represents their interpretation of the #
#song. You may only use this file for private study, scholarship, or research. #
#Unless specified otherwise, this is NOT an official tab from the band members.#
#------------------------------------------------------------------------------#

  Visit MetalTabs.com for more metal tablature
  
Band:  Moonsorrow
Album: Voimasta Ja Kunniasta
Song:  Kylän Päässä

Copyright (c)  Spikefarm Records 2001
Version 1.0 - 7.11.2005

Transcribed By: Theoldman
Email:          swordbearing@hotmail.com
________________________________________

.  - palm mute           /  - slide up to
\  - slide down to       ~  - vibrato
h  - hammer on           b  - Bend
p  - pull off            Suffixes for bend
t  - tap                 f  - full bend    h - half bend
ph - pinched harmonic    q  - quarter bend t - tap bend
*  - see comment         ^  - Hold bend    r release bend
x  - Stuccatto           ~  - vibrato bend
,  - slight palm mute    () - ghost note, sustained note
"  - tremolo note        <> - Trill

Tuning E A D G B E

Riff 1 (0:00-0:18)
|----------------|----------------|
|----------------|----------------|
|----------------|----------------|
|----------------|----------------|
|2---2-2-2---2-2-|2---2-2-2---2-2-|
|0---0-0-0---0-0-|0---0-0-0---0-0-|
 .   . . .   . .  .   . . .   . .


Riff 2 (0:19-0:35)
|---------------------------------|----------------|----------------|
|---------------------------------|----------------|----------------|
|---------------------------------|----------------|----------------|
|----9-8-8-------9-8-8-------8-12-|9---------------|----------------|
|----7-6-6-------7-6-6-------6-10-|7---2-2-2---2-2-|2---2-2-2---2-2-|
|0-0---------0-0---------0-0------|0---0-0-0---0-0-|0---0-0-0---0-0-|
 . .         . .         . .           . . .   . .  .   . . .   . .


Riff 3 (0:36-0:45)
|----------------|----------------|
|----------------|----------------|
|----------------|----------------|
|----------------|----------------|
|2---2-2-2---2-2-|2---2-2-5---5---|
|0---0-0-0---0-0-|0---0-0-3---3---|
     . . .   . .  .   . .
|----------------|----------------|
|----------------|----------------|
|----------------|----------------|
|----------------|----------------|
|2---2-2-2---2-2-|2---2-2-3---3---|
|0---0-0-0---0-0-|0---0-0-1---1---|
     . . .   . .  .   . .


Riff 4 (acoustic) (0:46-1:04)
|--------0-------3-0----0---0-0-|
|3-------0-------0-0----0---0-0-|
|0-------0-------0-0----0---0-0-|
|2-------2-------2-2----2---2-2-|
|2-------2-------2-2----2---2-2-|
|0-------0-------0-0----0---0-0-|



Riff 5 (acoustic) (1:05-1:23)
|0---0---0---0-0-|0---0---0---0-0-|2---2---2---2-2-|3---0---0---0-0-|
|0---0---0---0-0-|1---1---1---1-1-|4---4---4---4-4-|0---0---0---0-0-|
|0---0---0---0-0-|0---2---2---2-2-|4---4---4---4-4-|0---0---0---0-0-|
|2---2---2---2-2-|2---2---2---2-2-|4---4---4---4-4-|0---2---2---2-2-|
|2---2---2---2-2-|3---0---0---0-0-|2---2---2---2-2-|2---2---2---2-2-|
|0---0---0---0-0-|0---0---0---0-0-|----------------|3---0---0---0-0-|



Riff 6 (1:24-1:42)
|----------------|----------------|----------------|----------------|
|----------------|----------------|----------------|----------------|
|----------------|----------------|----------------|----------------|
|--------4-------|5-------2---2-5-|4-------4---2---|----------------|
|2-------2---2-2-|3---0---0---0-3-|2-------2---0-4-|5-------2-------|
|0---------------|----------------|--------------2-|3---0---0-------|
             . .      .                                 .


Riff 7 (1:43-2:01)
|----------------|----------------|----------------|----------------|
|----------------|----------------|----------------|----------------|
|----------------|----------------|----------------|----------------|
|----------------|----------------|----------------|------------4---|
|2---2-2-2-2-2---|2---2-2-2-2-2---|2---2-2-2-2-2---|----5---2-2-2---|
|0---0-0-0-0-0---|0---0-0-0-0-0---|0---0-0-0-0-0---|3-3-3-----------|
                                                    . .     . .
|--------------------|-----------------|
|Riff 7 end----------|-----------------|
|--------------------|----------9~-----|
|--------------------|-----------------|
|7-9-10-12-14---10-9-|10-9-7-5---------|
|--------------------|-----------------|




Riff 6 (2:02-2:19)

Riff 2 (2:20-2:36)

Riff 3 (2:37-2:45)



Riff 8 (2:46-2:50)
|----------------|----------------|
|----------------|----------------|
|----------------|----------------|
|----------------|----------------|
|4-------4-------|4-------5---5---|
|2---2-2-2---2-2-|2---2-2-3---3---|
     . .     . .      . .


Riff 9 (2:51-2:55)
|----------------|----------------|
|----------------|----------------|
|----------------|----------------|
|----------------|----------------|
|7-------7-------|7-------8---8---|
|5---5-5-5---5-5-|5---5-5-6---6---|
     . .     . .      . .


Riff 8 (2:56-2:59)

Riff 9 (3:00-3:04)



Riff 10 (3:05-3:13)
|----------------|----------------|
|----------------|----------------|
|----------------|----------------|
|4-------4-------|4-------5---5---|
|2---2-2-2---2-2-|2---2-2-3---3---|
|----------------|----------------|
     . . .   . .  .   . .
|----------------|----------------|
|----------------|----------------|
|----------------|----------------|
|4-------4-------|4-------3---3---|
|2---2-2-2---2-2-|2---2-2-1---1---|
|----------------|----------------|
     . . .   . .  .   . .


Riff 11 (3:14-3:19)
|----------------------------------------------------|
|----------------------------------------------------|
|----------------------------------------------------|
|2---------------------------------------------------|
|2---------------------------------------------------|
|0---------------------------------------------------|



Riff 12 (3:38-3:46)
|---------------|---------------|---------------|----------------|
|---------------|---------------|---------------|----------------|
|---------------|---------------|---------------|----------------|
|4--------------|4--------------|4--------------|7-------6-------|
|2--2-0-2-4-2-0-|2--2-0-2-4-2-0-|2--2-0-2-4-2-0-|5---5-5-4---7---|
|---------------|---------------|---------------|------------5---|
                                                     . .
|---------------|---------------|---------------|----------------|
|---------------|---------------|---------------|----------------|
|---------------|---------------|---------------|----------------|
|4--------------|4--------------|4--------------|7-------11--11--|
|2--2-0-2-4-2-0-|2--2-0-2-4-2-0-|2--2-0-2-4-2-0-|5---5-5-9---9---|
|---------------|---------------|---------------|----------------|
                                                     . .


Riff 13 (3:47-4:05)
|---------------|---------------|---------------|----------------|
|---------------|---------------|---------------|----------------|
|---------------|---------------|---------------|----------------|
|---------------|---------------|---------------|--------7---7---|
|2--------------|2--------------|2--------------|5-------5---5---|
|0--------------|0--------------|0--------------|3---3-3---------|
                                                     . .
|---------------|
|Riff 13 end----|
|---------------|
|5-4-2-0-2~-----|
|---------------|
|---------------|



Riff 14 (4:06-4:23)
|----------------|----------------|----------------|----------------|
|----------------|----------------|----------------|----------------|
|----------------|----------------|----------------|----------------|
|5-------5---7---|----------------|2-------2---4---|----------------|
|3---3-3-3---5---|5-------5-------|0---0-0-0---2---|2-------2-------|
|----------------|3---3-3-3---3-3-|----------------|0---0-0-0---0-0-|
     . . .   .        . .     . .      . . .   .        . .     . .
|----------------|----------------|----------------|----------------|
|----------------|----------------|----------------|----------------|
|----------------|----------------|----------------|----------------|
|5-------5---7---|----------------|----------------|4---4---4-------|
|3---3-3-3---5---|5-------5-------|----7-------4---|2---2---2-------|
|----------------|3---3-3-3---3-3-|5-5-5---2-2-2---|----------------|
     . . .   .        . .     . .  . .     . .      .   .

|----------------|
|Riff 14 end-----|
|----------------|
|------------4---|
|----7---2-2-2---|
|5-5-5-----------|
 . .     . .


Riff 13 (4:24-4:42)



Riff 15 (4:43-5:00)
|----------------|----------------|----------------|----------------|
|----------------|----------------|----------------|----------------|
|----------------|----------------|----------------|----------------|
|----------------|----------------|----------------|----7-------7---|
|2---2-2-2-2-2---|2---2-2-2-2-2---|2---2-2-2-2-2---|----5-------5---|
|0---0-0-0-0-0---|0---0-0-0-0-0---|0---0-0-0-0-0---|0-0-----0-0-----|
                                                    . .     . .
|--------------------|-----------------|
|Riff 15 end---------|-----------------|
|--------------------|-----------------|
|--------------------|-----------------|
|7-9-10-12-14---10-9-|10-9-7-5-7-------|
|--------------------|-----------------|



Riff 16 (5:01-5:23)
|---------------------------|-----------------------------|
|---------------------------|-----------------------------|
|---------------------------|-----------------------------|
|---------7-----------------|---------7---------------4---|
|----10-----9-----10---9----|----10-----9-----5---2-2-2---|
|0-0----0-----0-0----0---10-|0-0----0-----3-3-3-----------|
 . .    .     . .    .       . .    .     . .     . .


Riff 17 (5:24)
|----------------|
|----------------|
|----------------|
|9-----------7---|
|7-------9---5---|
|0-------7-------|



Riff 18 (5:25-5:45)
|----------------|----------------|----------------|----------------|
|----------------|----------------|----------------|----------------|
|----------------|----------------|----------------|----------------|
|9---------------|----------------|----------------|9-----------7---|
|7---------------|9---------------|7---------------|7-------9---5---|
|0---------------|7---------------|5---------------|0-------7-------|



Riff 16 (5:46-6:00)



Riff 19 (6:01-6:38)
|--------------------|-------------------------------|
|--------------------|-------------------------------|
|--------------------|-------------------------------|
|--------------------|-------------------------------|
|7---------7---------|7----------2--3------5--3------|
|5---------5---------|5----------0--1------3--1------|



Riff 17 (6:39)

Riff 18 (6:40-6:59)

Riff 16 (7:00-7:14)



Riff 20 (7:15-7:33)
|-----------------|----------------|-----------------|----------------|
|-----------------|----------------|-----------------|----------------|
|-----------------|----------------|-----------------|----------------|
|--------9-11-11--|--------9-7-7---|--------9-11-11--|------------4---|
|2---2---7-9--9---|2---2---7-5-5---|2---2---7-9--9---|----5---2-2-2---|
|0---0---0--------|0---0---0-------|0---0---0--------|3-3-3-----------|
 .   .             .   .            .   .             . .     . .


Riff 11 (7:34)



END

  Visit MetalTabs.com for more metal tablature

bottom separator

Contact Us | Privacy Policy | Disclaimer | Legal Notice
Copyright © 2001-2014 MetalTabs.com. All Rights Reserved.