top separator

Home

Forum

What's New

Submit a Tab

FAQ

Links

Contact Us

Link to Us

MuSpy.com

MetalTabs.com logo

Bands

0-9

A

B

C

D

E

F

G

H

I

J

K

L

M

N

O

P

Q

R

S

T

U

V

W

X

Y

Z

Search

What

Where
 

Darkthrone - "Triumphant Gleam" Guitar Tab

Plain Text Version
More Darkthrone Tabs

Hits: 4993
Rated: 3.50 out of 5 (6 votes)
Updated: 2005-11-07 05:09:34

 

By:

sendpm.gif

email.gif

Important note
This tab is available online because we obtained explicit permission from Darkthrone or their label.


#----------------------------------PLEASE NOTE---------------------------------#
#This file is the author's own work and represents their interpretation of the #
#song. You may only use this file for private study, scholarship, or research. #
#Unless specified otherwise, this is NOT an official tab from the band members.#
#------------------------------------------------------------------------------#

  Visit MetalTabs.com for more metal tablature
  
Band:  Darkthrone
Album: Panzerfaust
Song:  Triumphant Gleam

Copyright (c)  MoonFog Productions 1995
Version 1.0 - 11/3/05

Transcribed By: Stephen Kwiatkowski
Email:          unholymassacreonline@yahoo.com


.  - palm mute           /  - slide up to
\  - slide down to       ~  - vibrato
h  - hammer on           b  - Bend
p  - pull off            Suffixes for bend
t  - tap                 f  - full bend    h - half bend
ph - pinched harmonic    q  - quarter bend t - tap bend
*  - see comment         ^  - Hold bend    r release bend
x  - Stuccatto           ~  - vibrato bend
,  - slight palm mute    () - ghost note, sustained note
"  - tremolo note        <> - Trill

Tuning E A D G B E

Riff 1 (x8)
|-------------------------------------------------------------------|
|-------------------------------------------------------------------|
|-------------------------------------------------------------------|
|-------------------------------------------------------------------|
|-----9------7------4----5------------------------------------------|
|-00007--00005--00002--003------------------------------------------|
  ....   ....   ....   ..

Riff 2 (x2)
|-------------------------------------------------------------------|
|-------------------------------------------------------------------|
|-------------------------------------------------------------------|
|--------------------------444444444444444444444444-----------------|
|-444444444444444444444444-222222222222222222222222-----------------|
|-222222222222222222222222------------------------------------------|
  ........................ ........................

Riff 2 (cont.)
|-------------------------------------------------------------------|
|-------------------------------------------------------------------|
|-------------------------------------------------------------------|
|-333333333333333333333333-666666666666-555555555555----------------|
|-111111111111111111111111-444444444444-333333333333----------------|
|-------------------------------------------------------------------|
  ........................ ............ ............

Riff 1 (x6)
|-------------------------------------------------------------------|
|-------------------------------------------------------------------|
|-------------------------------------------------------------------|
|-------------------------------------------------------------------|
|-----9------7------4----5------------------------------------------|
|-00007--00005--00002--003------------------------------------------|
  ....   ....   ....   ..

Riff 3 (x2)
|-------------------------------------------------------------------|
|-------------------------------------------------------------------|
|-------------------------------------------------------------------|
|---------------2---------------------------------------------------|
|-4--------4/3--2--------7--------8/4--5----------------------------|
|-2--------2/1--0--------5--------6/2--3----------------------------|

Riff 4 (x4)
|-------------------------------------------------------------------|
|-------------------------------------------------------------------|
|-------------------------------------------------------------------|
|-------------------------------------------------------------------|
|-555-555-5/6/7/9/10------------------------------------------------|
|-333-333-3/4/5/7/-8------------------------------------------------|

Riff 5 (x4)
|-------------------------------------------------------------------|
|-------------------------------------------------------------------|
|-------------------------------------------------------------------|
|-------------------------------------------------------------------|
|-11--10--9--6--8---------------------------------------------------|
|--9---8--7--4--6---------------------------------------------------|
   "   "  "  "  "

Riff 4 (x4)
|-------------------------------------------------------------------|
|-------------------------------------------------------------------|
|-------------------------------------------------------------------|
|-------------------------------------------------------------------|
|-555-555-5/6/7/9/10------------------------------------------------|
|-333-333-3/4/5/7/-8------------------------------------------------|

Riff 1 (x6)
|-------------------------------------------------------------------|
|-------------------------------------------------------------------|
|-------------------------------------------------------------------|
|-------------------------------------------------------------------|
|-----9------7------4----5------------------------------------------|
|-00007--00005--00002--003------------------------------------------|
  ....   ....   ....   ..

Riff 2 (x3)
|-------------------------------------------------------------------|
|-------------------------------------------------------------------|
|-------------------------------------------------------------------|
|--------------------------444444444444444444444444-----------------|
|-444444444444444444444444-222222222222222222222222-----------------|
|-222222222222222222222222------------------------------------------|
  ........................ ........................

Riff 2 (cont.)
|-------------------------------------------------------------------|
|-------------------------------------------------------------------|
|-------------------------------------------------------------------|
|-333333333333333333333333-666666666666-555555555555----------------|
|-111111111111111111111111-444444444444-333333333333----------------|
|-------------------------------------------------------------------|
  ........................ ............ ............

Riff 4 (x4)
|-------------------------------------------------------------------|
|-------------------------------------------------------------------|
|-------------------------------------------------------------------|
|-------------------------------------------------------------------|
|-555-555-5/6/7/9/10------------------------------------------------|
|-333-333-3/4/5/7/-8------------------------------------------------|

Riff 5 (x4)
|-------------------------------------------------------------------|
|-------------------------------------------------------------------|
|-------------------------------------------------------------------|
|-------------------------------------------------------------------|
|-11--10--9--6--8---------------------------------------------------|
|--9---8--7--4--6---------------------------------------------------|
   "   "  "  "  "

Riff 4 (x4)
|-------------------------------------------------------------------|
|-------------------------------------------------------------------|
|-------------------------------------------------------------------|
|-------------------------------------------------------------------|
|-555-555-5/6/7/9/10------------------------------------------------|
|-333-333-3/4/5/7/-8------------------------------------------------|

END

  Visit MetalTabs.com for more metal tablature

bottom separator

Contact Us | Privacy Policy | Disclaimer | Legal Notice
Copyright © 2001-2014 MetalTabs.com. All Rights Reserved.