top separator

Home

Forum

What's New

Submit a Tab

FAQ

Links

Contact Us

Link to Us

MetalTabs.com logo

Bands

0-9

A

B

C

D

E

F

G

H

I

J

K

L

M

N

O

P

Q

R

S

T

U

V

W

X

Y

Z

Search

What

Where
 

Moonsorrow - "Jumalten Kaupunki incl. Tuhatvuotinen Perintö" Guitar Tab

Plain Text Version
More Moonsorrow Tabs

Hits: 5030
Rated: 3.25 out of 5 (4 votes)
Updated: 2005-11-07 05:09:26

 

By:

Theoldman

sendpm.gif

email.gif

Important note
This tab is available online because we obtained explicit permission from Moonsorrow or their label.


#----------------------------------PLEASE NOTE---------------------------------#
#This file is the author's own work and represents their interpretation of the #
#song. You may only use this file for private study, scholarship, or research. #
#Unless specified otherwise, this is NOT an official tab from the band members.#
#------------------------------------------------------------------------------#

  Visit MetalTabs.com for more metal tablature
  
Band:  Moonsorrow
Album: Kivenkantaja
Song:  Jumalten Kaupunki

Copyright (c)  Spikefarm 2003
Version 1.0 - 3.11.2005

Transcribed By: Theoldman
Email:          swordbearing@hotmail.com
________________________________________

.  - palm mute           /  - slide up to
\  - slide down to       ~  - vibrato
h  - hammer on           b  - Bend
p  - pull off            Suffixes for bend
t  - tap                 f  - full bend    h - half bend
ph - pinched harmonic    q  - quarter bend t - tap bend
*  - see comment         ^  - Hold bend    r release bend
x  - Stuccatto           ~  - vibrato bend
,  - slight palm mute    () - ghost note, sustained note
"  - tremolo note        <> - Trill

Tuning  B E A D G B

Riff 1 (1:09-1:36)
|-----------------------|-----------------------|------------------------|
|-----------------------|-----------------------|------------------------|
|-----------------------|-----------------------|------------------------|
|7----------7-5-5-5-7-7-|7----------7-5-5-5-7-7-|7-3-3-3-2-3-5-5-5-5-2-5-|
|7----------7-5-5-5-7-7-|7----------7-5-5-5-7-7-|7-3-3-3-2-3-5-5-5-5-2-5-|
|5----5-5-5-5-3-3-3-5-5-|5----5-5-5-5-3-3-3-5-5-|5-1-1-1-0-1-3-3-3-3-0-3-|
      . . .                   . . .
|-----------------------|-----------------------|------------------------|
|-----------------------|-----------------------|------------------------|
|-----------------------|-----------------------|------------------------|
|7----------7-5-5-5-7-7-|7----------7-5-5-5-7-7-|7-3-3-3-2-3-5-5-5-5-2-5-|
|7----------7-5-5-5-7-7-|7----------7-5-5-5-7-7-|7-3-3-3-2-3-5-5-5-5-2-5-|
|5----5-5-5-5-3-3-3-5-5-|5----5-5-5-5-3-3-3-5-5-|5-1-1-1-0-1-3-3-3-3-0-3-|
      . . .                   . . .
|---------------------|
|---------------------|
|---------------------|
|7----------5---5-2-5-|
|7----------5---5-2-5-|
|5----5-5-5-3---3-0-3-|
      . . .


Riff 2 (1:37-1:40)
|------------------------------------------------|
|------------------------------------------------|
|------------------------------------------------|
|------------------------------------------------|
|7-7-7-7-7-7-7-7-7-7-7-7-7-7-7-7-7-7-7-7-7-7-7-7-|
|5-5-5-5-5-5-5-5-5-5-5-5-5-5-5-5-5-5-5-5-5-5-5-5-|
 . . . . . . . . . . . . . . . . . . . . . . . .



Riff 3 (1:41-2:11)
|-----------------------|-----------------------|--------------------|
|-----------------------|-----------------------|--------------------|
|-----------------------|-----------------------|--------------------|
|-----------------------|-----------------------|--------------------|
|7--7-7-7-7-7-5-5-5-7-7-|7--7-7-7-7-7-5-5-5-7-7-|3---3-2-3-5---5-2-5-|
|5--5-5-5-5-5-3-3-3-5-5-|5--5-5-5-5-5-3-3-3-5-5-|1---1-0-1-3---3-0-3-|

|-----------------------|-----------------------|--------------------|
|-----------------------|-----------------------|--------------------|
|-----------------------|-----------------------|--------------------|
|-----------------------|-----------------------|--------------------|
|7--7-7-7-7-7-5-5-5-7-7-|7--7-7-7-7-7-5-5-5-7-7-|3---3-2-3-5---5-2-5-|
|5--5-5-5-5-5-3-3-3-5-5-|5--5-5-5-5-5-3-3-3-5-5-|1---1-0-1-3---3-0-3-|

|---------------------|
|---------------------|
|---------------------|
|---------------------|
|7--7-7-7-7-5---5-2-5-|
|5--5-5-5-5-3---3-0-3-|



Riff 4 (2:12-2:44)
|------------------------------------------------|
|------------------------------------------------|
|------------------------------------------------|
|------------------------------------------4-4-4-|
|7-7-7-7-7-7-7-7-7-7-7-7-7-7-7-7-7-7-7-7-7-2-2-2-|
|5-5-5-5-5-5-5-5-5-5-5-5-5-5-5-5-5-5-5-5-5-------|

|------------------------------------------------|
|------------------------------------------------|
|------------------------------------------------|
|5-5-5-5-5-5-5-5-5-5-5-5-------------------------|
|3-3-3-3-3-3-3-3-3-3-3-3-5-5-5-5-5-5-5-7-7-7-5-5-|
|------------------------3-3-3-3-3-3-3-5-5-5-3-3-|

|-------------------|
|Riff 4 End---------|
|-------------------|
|10-10-10-9-7-5-----|
|8--8--8--7-5-3-7---|
|---------------5---|



Riff 5 (2:45-3:17)
|---------------------------------------------------------|
|---------------------------------------------------------|
|---------------------4---5-------------------------------|
|7--------------------4---5------------5------5-7-7-7-5-5-|
|7--------------------2---3------------5------5-7-7-7-5-5-|
|5-------------------------------------3------3-5-5-5-3-3-|

|---------------------------------------------------------|
|---------------------------------------------------------|
|---------------------4---5------------7------7-5-5-5-4-4-|
|7--------------------4---5------------7------7-5-5-5-4-4-|
|7--------------------2---3------------5------5-3-3-3-2-2-|
|5--------------------------------------------------------|



Riff 6 (3:18-3:32)
|---------------------|---------------------|
|---------------------|---------------------|
|---------------------|---------------------|
|7--7------3~-3-2-----|7--7------1~-1-0-----|
|7--7--5-7--------3-0-|7--7--5-7--------3-0-|
|5--5-----------------|5--5-----------------|
 .  .                  .  .
|---------------------|--------------------|
|---------------------|--------------------|
|---------------------|------5-------------|
|7--7------3~-3-2-----|------5---------5---|
|7--7--5-7--------3-0-|3-3-3-3---------5---|
|5--5-----------------|----------3-3-3-3---|
 .  .                  . . .     . . .
|---------------------|---------------------|
|---------------------|---------------------|
|---------------------|---------------------|
|7--7------3~-3-2-----|7--7------1~-1-0-----|
|7--7--5-7--------3-0-|7--7--5-7--------3-0-|
|5--5-----------------|5--5-----------------|
 .  .                  .  .
|---------------------|------------------------|
|---------------------|------------------------|
|---------------------|------------------------|
|7--7------3~-3-2-----|5-5-5-5-5-5-------------|
|7--7--5-7--------3-0-|3-3-3-3-3-3-5-5-5-5-5-5-|
|5--5-----------------|------------3-3-3-3-3-3-|
 .  .                  . . . . . . . . . . . .


Riff 7 (3:33-3:36)
|------------------------------------------------|
|------------------------------------------------|
|------------------------------------------------|
|------------------------------------------------|
|7-------7-5-7-------7-5-7-----7-----7-7-7-7-7-7-|
|5-5-5-5-5-3-5-5-5-5-5-3-5-5-5-5-5-5-5-5-5-5-5-5-|
   . . .       . . .       . .   . .


Riff 8 (3:37-4:07)
|------------------------------------------------|
|------------------------------------------------|
|------------------------------------------------|
|------------------------------------------------|
|7-7-7-7-7-7-7-7-7-7-7-7-7-7-7-7-7-7-7-7-7-7-7-7-|
|5-5-5-5-5-5-5-5-5-5-5-5-5-5-5-5-5-5-5-5-5-5-5-5-|

|------------------------------------------------|
|------------------------------------------------|
|------------------------------------------------|
|--------------------------------------8-8-8-7-7-|
|7-7-7-7-7-7-7-7-7-7-7-7-7-7-7-7-7-7-7-6-6-6-5-5-|
|5-5-5-5-5-5-5-5-5-5-5-5-5-5-5-5-5-5-5-----------|

|------------------------------------------------|
|------------------------------------------------|
|------------------------------------------------|
|------------------------------------------------|
|7-7-7-7-7-7-7-7-7-7-7-7-7-7-7-7-7-7-7-7-7-7-7-7-|
|5-5-5-5-5-5-5-5-5-5-5-5-5-5-5-5-5-5-5-5-5-5-5-5-|

|---------------------------------------------------|
|---------------------------------------------------|
|---------------------------------------------------|
|---------------------------------------------------|
|8-8-8-8-8-8-8-8-8-8-8-8-8-8-8-8-8-8-8-10-10-10-8-8-|
|6-6-6-6-6-6-6-6-6-6-6-6-6-6-6-6-6-6-6-8--8--8--6-6-|



Riff 9 (4:08-4:11)
|-----------------------------|
|-----------------------------|
|-----------------------------|
|-----------------------------|
|7---------5------------------|
|5---5-5-5-3------------------|
     . . .


Riff 5 (4:12-4:43)

Riff 8 (4:45-5:18)



Riff 10 (5:19-5:50)
|--------------|
|--------------|
|--------------|
|--------------|
|7---7-7-7-7---|
|5---5-5-5-5---|



Riff 11 (5:21-5:52)
|----------------|------------------|----------------|------------------|
|----------------|------------------|----------------|------------------|
|----------------|------------------|----------------|5-----------------|
|7---5---7---3---|3---------7-------|7---5---7---3---|5---------7-------|
|7---5---7---3---|3---------7-------|7---5---7---3---|3---------7-------|
|5---3---5---1---|1---3-3-3-5-------|5---3---5---1---|----3-3-3-5-------|
                      . . .                               . . .
|----------------|------------------|----------------|------------------------|
|----------------|------------------|----------------|------------------------|
|----------------|5-----------------|----------------|------------------------|
|2-------3-------|5---------7-------|2---------3-----|2-2-2-2-2-2-2-2-2-2-2-2-|
|2-------3-------|3---------7-------|2---------3-----|2-2-2-2-2-2-2-2-2-2-2-2-|
|0-------1-------|----3-3-3-5-------|0---0-0-0-1-----|0-0-0-0-0-0-0-0-0-0-0-0-|
                      . . .              . . .        . . . . . . . . . . . .


Riff 12 (5:53-6:08)
|------------------------|------------------------|
|------------------------|------------------------|
|------------------------|------------------------|
|------------------------|------------------------|
|------------------------|------------------------|
|5-5-5-3-3-3-5-5-5-1-1-1-|1-1-1-3-3-3-5-5-5-5-5-5-|
 . . . . . . . . . . . .  . . . . . . . . . . . .
|------------------------|------------------------|
|------------------------|------------------------|
|------------------------|------------------------|
|------------------------|------------------------|
|------------------------|3-3-3-------------------|
|5-5-5-3-3-3-5-5-5-1-1-1-|------3-3-3-5-5-5-5-5-5-|
 . . . . . . . . . . . .  . . . . . . . . . . . .
|----------------------------------------|
|----------------------------------------|
|----------------------------------------|
|--------------------5-------------------|
|2---------3---------3---------7---------|
|0---0-0-0-1---1-1-1-----3-3-3-5---5-5-5-|
     . . .     . . .     . . .     . . .
|--------------------------------------------|
|--------------------------------------------|
|--------------------------------------------|
|--------------------------------------------|
|2---------3---------2-2-2-2-2-2-2-2-2-2-2-2-|
|0---0-0-0-1---1-1-1-0-0-0-0-0-0-0-0-0-0-0-0-|
     . . .     . . . . . . . . . . . . . . .


Riff 13 (6:09-6:40)
|---------------------|---------------------|
|---------------------|---------------------|
|---------------------|---------------------|
|---------------------|---------------------|
|7--------------------|7--------------------|
|5---5-5-5-5--5-5-5-5-|5---5-5-5-5--5-5-5-5-|
     . . . .  . . . .      . . . .  . . . .
|---------------------|------------------------|
|---------------------|------------------------|
|---------------------|------------------------|
|---------------------|5-5-5-5-5-5-------------|
|7--------------------|3-3-3-3-3-3-5-5-5-5-5-5-|
|5---5-5-5-5--5-5-5-5-|------------3-3-3-3-3-3-|
     . . . .  . . . .
|------------------------|
|Riff 13 End-------------|
|------------------------|
|------------------------|
|2-2-2-3-3-3-5-5-5-6-6-6-|
|0-0-0-1-1-1-3-3-3-4-4-4-|



Riff 11 (6:41-6:56)



Riff 14 (6:57-7:11)
|------------------------|------------------------|
|------------------------|------------------------|
|----------5---7---------|----------5---7---------|
|7---------5---7---7-----|7---------5---7---7-----|
|7---------3---5---7-----|7---------3---5---7-----|
|5-----------------5-----|5-----------------5-----|

|------------------------|----------------------|--------------------|
|5-----------7-----------|5--5-------5--5-------|4---------4---------|
|5---5-------7---7-------|5--5-------5--5-------|4---------4---------|
|3---5-------5---7-------|3--3-3-3-3-3--3-3-3-3-|2---2-2-2-2---2-2-2-|
|----3-----------5-------|----------------------|--------------------|
|------------------------|----------------------|--------------------|
                               . . .      . . .      . . .     . . .


Riff 15 (7:12-7:56)
|----------------------|-------------------|
|----------------------|-------------------|
|----------------------|-------------------|
|----------------------|5---7--------------|
|7--7-------7--7-------|3---5---7--7-------|
|5--5-5-5-5-5--5-5-5-5-|--------5--5-5-5-5-|
      . . .      . . .               . . .
|----------------------|-------------------|
|----------------------|-------------------|
|----------------------|-------------------|
|----------------------|5---7--------------|
|7--7-------7--7-------|3---5---7--7-------|
|5--5-5-5-5-5--5-5-5-5-|--------5--5-5-5-5-|
      . . .      . . .               . . .
|--------------------------------|----------------------|--------------------|
|--------------------------------|----------------------|--------------------|
|5---------------7---------------|5--5-------5--5-------|4---------4---------|
|3-3-3-5---------5-5-5-7---------|3--3-3-3-3-3--3-3-3-3-|2---2-2-2-2---2-2-2-|
|------3---3-3-3-------5---5-5-5-|----------------------|--------------------|
|--------------------------------|----------------------|--------------------|
   . .     . . .   . .     . . .       . . .      . . .      . . .     . . .


Riff 16 (7:57)
|-------------------------------------------------|
|-------------------------------------------------|
|-------------------------------------------------|
|-------------------------------------------------|
|7------------------------------------------------|
|5------------------------------------------------|



Riff 17 (8:12-8:22)
|------------------------|
|------------------------|
|------------------------|
|------------------------|
|------------------------|
|5-5-5-5-5-5-5-5-5-5-5-5-|
 . . . . . . . . . . . .


Riff 18 (8:23-8:37)
|------------------------|------------------------|
|------------------------|------------------------|
|------------------------|------------------------|
|------------------------|--------------5--5------|
|7--7---7--7---7--7------|7--7---7--7---3--3------|
|5--5---5--5---5--5------|5--5---5--5-------------|
 .  .   .  .   .  .       .  .   .  .   .  .
|------------------------|---------------------|
|------------------------|---------------------|
|------------------------|--------------5--5---|
|5--5---5--5---7--7------|7--7---7--7---3--3---|
|3--3---3--3---5--5------|5--5---5--5----------|
|------------------------|---------------------|
 .  .   .  .   .  .       .  .   .  .   .  .


Riff 19 (8:38-8:49)
|------------------------------------------------------|
|------------------------------------------------------|
|------------------------------------------------------|
|------------------------------------------------------|
|---7--------7--------7--------7--------7--------7-----|
|5--5-----5--5-----5--5-----5--5-----5--5-----5--5-----|
 .        .        .        .        .        .
|---------------------------------------------------------------|
|---------------------------------------------------------------|
|-----------------------------------------------5-5-5-5-5-5-5-5-|
|---5--------5--------5-----7-7-7-7-7-7-7-7-7-7-3-3-3-3-3-3-3-3-|
|3--3-----3--3-----3--3-----5-5-5-5-5-5-5-5-5-5-----------------|
|---------------------------------------------------------------|
 .        .        .        . . . . . . . . . . . . . . . . . .


Riff 20 (8:50-10:14)
|----------------------|----------------------|----------------------|
|----------------------|----------------------|----------------------|
|----------------------|----------------------|----------------------|
|----------------------|----------------------|----------------------|
|7--7-7-7-7-7--7-7-7-7-|7--7-7-7-7-7--7-7-7-7-|7--7-7-7-7-7--7-7-7-7-|
|5--5-5-5-5-5--5-5-5-5-|5--5-5-5-5-5--5-5-5-5-|5--5-5-5-5-5--5-5-5-5-|

|----------------------|----------------------|----------------------|
|----------------------|----------------------|----------------------|
|----------------------|----------------------|---------5-5--5-5-5-5-|
|5--5-5-5-5-5--5-5-5-5-|5--5-5-5-5-7--7-7-7-7-|7--7-7-7-3-3--3-3-3-3-|
|3--3-3-3-3-3--3-3-3-3-|3--3-3-3-3-5--5-5-5-5-|5--5-5-5--------------|
|----------------------|----------------------|----------------------|



END

  Visit MetalTabs.com for more metal tablature

bottom separator

Contact Us | Privacy Policy | Disclaimer | Legal Notice
Copyright © 2001-2014 MetalTabs.com. All Rights Reserved.